  0
SECTION
  2
ENTITIES
  0
ARC
  8
APS_GEOMETRY
 10
0.335001
 20
0.04
 40
0.04
 50
269.99998
 51
0.000412
  0
LINE
  8
APS_GEOMETRY
 10
0.375001
 11
0.375
 20
0.04
 21
0.070242
  0
LINE
  8
APS_GEOMETRY
 10
0.375
 11
0.381164
 20
0.070242
 21
0.078131
  0
ARC
  8
APS_GEOMETRY
 10
0.381875
 20
0.118125
 40
0.04
 50
268.981514
 51
0.000387
  0
LINE
  8
APS_GEOMETRY
 10
0.421875
 11
0.421875
 20
0.118125
 21
0.140625
  0
ARC
  8
APS_GEOMETRY
 10
0.671875
 20
0.140625
 40
0.25
 50
89.999889
 51
180.0
  0
LINE
  8
APS_GEOMETRY
 10
0.671875
 11
0.678751
 20
0.390625
 21
0.390625
  0
ARC
  8
APS_GEOMETRY
 10
0.678751
 20
0.430625
 40
0.04
 50
269.999876
 51
359.999929
  0
LINE
  8
APS_GEOMETRY
 10
0.718751
 11
0.718751
 20
0.430625
 21
0.445272
  0
LINE
  8
APS_GEOMETRY
 10
0.718751
 11
0.724886
 20
0.445272
 21
0.453125
  0
LINE
  8
APS_GEOMETRY
 10
0.724886
 11
0.741251
 20
0.453125
 21
0.453125
  0
ARC
  8
APS_GEOMETRY
 10
0.74125
 20
0.493125
 40
0.04
 50
270.001432
 51
359.999976
  0
LINE
  8
APS_GEOMETRY
 10
0.78125
 11
0.781251
 20
0.493125
 21
1.317179
  0
LINE
  8
APS_GEOMETRY
 10
0.781251
 11
0.789803
 20
1.317179
 21
1.328125
  0
LINE
  8
APS_GEOMETRY
 10
0.789803
 11
1.241251
 20
1.328125
 21
1.328125
  0
ARC
  8
APS_GEOMETRY
 10
1.24125
 20
1.368125
 40
0.04
 50
270.001432
 51
0.000211
  0
LINE
  8
APS_GEOMETRY
 10
1.28125
 11
1.28125
 20
1.368125
 21
1.445335
  0
LINE
  8
APS_GEOMETRY
 10
1.28125
 11
1.287336
 20
1.445335
 21
1.453125
  0
LINE
  8
APS_GEOMETRY
 10
1.287336
 11
1.30375
 20
1.453125
 21
1.453125
  0
ARC
  8
APS_GEOMETRY
 10
1.30375
 20
1.493125
 40
0.04
 50
269.999929
 51
0.00029
  0
LINE
  8
APS_GEOMETRY
 10
1.34375
 11
1.34375
 20
1.493125
 21
1.502933
  0
ARC
  8
APS_GEOMETRY
 10
2.824031
 20
1.521007
 40
1.480391
 50
94.282859
 51
180.699537
  0
ARC
  8
APS_GEOMETRY
 10
2.71
 20
3.037113
 40
0.04
 50
274.983098
 51
0.000458
  0
LINE
  8
APS_GEOMETRY
 10
2.75
 11
2.75
 20
3.037113
 21
3.117303
  0
LINE
  8
APS_GEOMETRY
 10
2.75
 11
2.756014
 20
3.117303
 21
3.125
  0
LINE
  8
APS_GEOMETRY
 10
2.756014
 11
2.835
 20
3.125
 21
3.125
  0
ARC
  8
APS_GEOMETRY
 10
2.835
 20
3.165
 40
0.04
 50
270.0
 51
359.99996
  0
LINE
  8
APS_GEOMETRY
 10
2.875
 11
2.875
 20
3.165
 21
3.5
  0
LINE
  8
APS_GEOMETRY
 10
2.875
 11
2.154815
 20
3.5
 21
3.499999
  0
LINE
  8
APS_GEOMETRY
 10
2.154815
 11
0.0
 20
3.499999
 21
0.741962
  0
LINE
  8
APS_GEOMETRY
 10
0.0
 11
0.0
 20
0.741962
 21
0.0
  0
LINE
  8
APS_GEOMETRY
 10
0.0
 11
0.335001
 20
0.0
 21
0.0
  0
LINE
  8
CONSTRUCTION
 10
0.152615
 11
0.10065
 20
-1.038482
 21
-1.166909
  0
LINE
  8
CONSTRUCTION
 10
0.10065
 11
0.20458
 20
-1.166909
 21
-1.166909
  0
LINE
  8
CONSTRUCTION
 10
0.20458
 11
0.152615
 20
-1.166909
 21
-1.038482
  0
LINE
  8
CONSTRUCTION
 10
0.152615
 11
0.559547
 20
-1.038482
 21
-1.03848
  0
LINE
  8
CONSTRUCTION
 10
0.559547
 11
0.507582
 20
-1.03848
 21
-1.166908
  0
LINE
  8
CONSTRUCTION
 10
0.507582
 11
0.611512
 20
-1.166908
 21
-1.166908
  0
LINE
  8
CONSTRUCTION
 10
0.611512
 11
0.559547
 20
-1.166908
 21
-1.03848
  0
LINE
  8
CONSTRUCTION
 10
0.559547
 11
0.966478
 20
-1.03848
 21
-1.03848
  0
LINE
  8
CONSTRUCTION
 10
0.966478
 11
0.914513
 20
-1.03848
 21
-1.166908
  0
LINE
  8
CONSTRUCTION
 10
0.914513
 11
1.018442
 20
-1.166908
 21
-1.166908
  0
LINE
  8
CONSTRUCTION
 10
1.018442
 11
0.966478
 20
-1.166908
 21
-1.03848
  0
LINE
  8
CONSTRUCTION
 10
0.966478
 11
1.373408
 20
-1.03848
 21
-1.03848
  0
LINE
  8
CONSTRUCTION
 10
1.373408
 11
1.321443
 20
-1.03848
 21
-1.166908
  0
LINE
  8
CONSTRUCTION
 10
1.321443
 11
1.425373
 20
-1.166908
 21
-1.166908
  0
LINE
  8
CONSTRUCTION
 10
1.425373
 11
1.373408
 20
-1.166908
 21
-1.03848
  0
LINE
  8
CONSTRUCTION
 10
1.373408
 11
1.780281
 20
-1.03848
 21
-1.038482
  0
LINE
  8
CONSTRUCTION
 10
1.780281
 11
1.728316
 20
-1.038482
 21
-1.166909
  0
LINE
  8
CONSTRUCTION
 10
1.728316
 11
1.832246
 20
-1.166909
 21
-1.166909
  0
LINE
  8
CONSTRUCTION
 10
1.832246
 11
1.780281
 20
-1.166909
 21
-1.038482
  0
LINE
  8
CONSTRUCTION
 10
0.0
 11
4.0
 20
-1.561751
 21
-1.561751
  0
TEXT
  8
TEXT
 10
0.10065
 20
-1.405784
 30
0.0
 40
0.224
 50
0.0
  1
DOVETAIL DESIGNS
  0
TEXT
  8
TEXT
 10
2.276036
 20
-1.551751
 30
0.0
 40
0.099
 50
0.0
  1
& MILLWORK INC.
  0
TEXT
  8
TEXT
 10
1.092458
 20
-1.640461
 30
0.0
 40
0.07
 50
0.0
  1
Established 1979
  0
TEXT
  8
TEXT
 10
0.1
 20
-1.8
 30
0.0
 40
0.1
 50
0.0
  1
Phone: (406) 248-5010    Website: www.dovetailmt.com
  0
TEXT
  8
TEXT
 10
0.0
 20
-0.25
 30
0.0
 40
0.15625
 50
0.0
  1
CN176
  0
TEXT
  8
TEXT
 10
0.0
 20
-0.65
 30
0.0
 40
0.1
 50
0.0
  1
(25/32"x4-17/32")
  0
TEXT
  8
TEXT
 10
0.0
 20
-0.5
 30
0.0
 40
0.1
 50
0.0
  1
2-7/8"x3-1/2"
  0
ENDSEC
  0
EOF
