  0
SECTION
  2
ENTITIES
  0
ARC
  8
APS_GEOMETRY
 10
0.537851
 20
0.25
 40
0.250002
 50
269.74516
 51
64.02516
  0
LINE
  8
APS_GEOMETRY
 10
0.647346
 11
0.536739
 20
0.474748
 21
0.5
  0
LINE
  8
APS_GEOMETRY
 10
0.536739
 11
0.538963
 20
0.5
 21
0.75
  0
LINE
  8
APS_GEOMETRY
 10
0.538963
 11
0.743164
 20
0.75
 21
0.75
  0
ARC
  8
APS_GEOMETRY
 10
5.909117
 20
0.52943
 40
5.17066
 50
164.075127
 51
177.555137
  0
ARC
  8
APS_GEOMETRY
 10
-4.265377
 20
3.292384
 40
5.37314
 50
345.511912
 51
359.548035
  0
LINE
  8
APS_GEOMETRY
 10
1.107596
 11
1.261931
 20
3.25
 21
3.25
  0
LINE
  8
APS_GEOMETRY
 10
1.261931
 11
1.261931
 20
3.25
 21
3.376106
  0
LINE
  8
APS_GEOMETRY
 10
1.261931
 11
1.345135
 20
3.376106
 21
3.357417
  0
ARC
  8
APS_GEOMETRY
 10
1.381869
 20
3.500181
 40
0.147414
 50
255.570447
 51
3.807028
  0
ARC
  8
APS_GEOMETRY
 10
1.398337
 20
3.829254
 40
0.344971
 50
292.249628
 51
358.345657
  0
LINE
  8
APS_GEOMETRY
 10
1.743164
 11
1.743164
 20
3.819295
 21
4.0
  0
LINE
  8
APS_GEOMETRY
 10
1.743164
 11
0.747937
 20
4.0
 21
4.0
  0
LINE
  8
APS_GEOMETRY
 10
0.747937
 11
0.0
 20
4.0
 21
0.696959
  0
LINE
  8
APS_GEOMETRY
 10
0.0
 11
0.0
 20
0.696959
 21
0.0
  0
LINE
  8
APS_GEOMETRY
 10
0.0
 11
0.536739
 20
0.0
 21
0.0
  0
LINE
  8
CONSTRUCTION
 10
0.152615
 11
0.10065
 20
-1.038482
 21
-1.166909
  0
LINE
  8
CONSTRUCTION
 10
0.10065
 11
0.20458
 20
-1.166909
 21
-1.166909
  0
LINE
  8
CONSTRUCTION
 10
0.20458
 11
0.152615
 20
-1.166909
 21
-1.038482
  0
LINE
  8
CONSTRUCTION
 10
0.152615
 11
0.559547
 20
-1.038482
 21
-1.03848
  0
LINE
  8
CONSTRUCTION
 10
0.559547
 11
0.507582
 20
-1.03848
 21
-1.166908
  0
LINE
  8
CONSTRUCTION
 10
0.507582
 11
0.611512
 20
-1.166908
 21
-1.166908
  0
LINE
  8
CONSTRUCTION
 10
0.611512
 11
0.559547
 20
-1.166908
 21
-1.03848
  0
LINE
  8
CONSTRUCTION
 10
0.559547
 11
0.966478
 20
-1.03848
 21
-1.03848
  0
LINE
  8
CONSTRUCTION
 10
0.966478
 11
0.914513
 20
-1.03848
 21
-1.166908
  0
LINE
  8
CONSTRUCTION
 10
0.914513
 11
1.018442
 20
-1.166908
 21
-1.166908
  0
LINE
  8
CONSTRUCTION
 10
1.018442
 11
0.966478
 20
-1.166908
 21
-1.03848
  0
LINE
  8
CONSTRUCTION
 10
0.966478
 11
1.373408
 20
-1.03848
 21
-1.03848
  0
LINE
  8
CONSTRUCTION
 10
1.373408
 11
1.321443
 20
-1.03848
 21
-1.166908
  0
LINE
  8
CONSTRUCTION
 10
1.321443
 11
1.425373
 20
-1.166908
 21
-1.166908
  0
LINE
  8
CONSTRUCTION
 10
1.425373
 11
1.373408
 20
-1.166908
 21
-1.03848
  0
LINE
  8
CONSTRUCTION
 10
1.373408
 11
1.780281
 20
-1.03848
 21
-1.038482
  0
LINE
  8
CONSTRUCTION
 10
1.780281
 11
1.728316
 20
-1.038482
 21
-1.166909
  0
LINE
  8
CONSTRUCTION
 10
1.728316
 11
1.832246
 20
-1.166909
 21
-1.166909
  0
LINE
  8
CONSTRUCTION
 10
1.832246
 11
1.780281
 20
-1.166909
 21
-1.038482
  0
LINE
  8
CONSTRUCTION
 10
0.0
 11
4.0
 20
-1.561751
 21
-1.561751
  0
TEXT
  8
TEXT
 10
0.10065
 20
-1.405784
 30
0.0
 40
0.224
 50
0.0
  1
DOVETAIL DESIGNS
  0
TEXT
  8
TEXT
 10
2.276036
 20
-1.551751
 30
0.0
 40
0.099
 50
0.0
  1
& MILLWORK INC.
  0
TEXT
  8
TEXT
 10
1.092458
 20
-1.640461
 30
0.0
 40
0.07
 50
0.0
  1
Established 1979
  0
TEXT
  8
TEXT
 10
0.1
 20
-1.8
 30
0.0
 40
0.1
 50
0.0
  1
Phone: (406) 248-5010    Website: www.dovetailmt.com
  0
TEXT
  8
TEXT
 10
0.0
 20
-0.5
 30
0.0
 40
0.1
 50
0.0
  1
1-3/4"x4"
  0
TEXT
  8
TEXT
 10
0.0
 20
-0.65
 30
0.0
 40
0.1
 50
0.0
  1
(1"x4-9/32")
  0
TEXT
  8
TEXT
 10
0.0
 20
-0.25
 30
0.0
 40
0.15625
 50
0.0
  1
CN175A
  0
ENDSEC
  0
EOF
