  0
SECTION
  2
ENTITIES
  0
ARC
  8
APS_GEOMETRY
 10
0.212249
 20
0.0
 40
0.101764
 50
146.125879
 51
179.999882
  0
LINE
  8
APS_GEOMETRY
 10
0.110485
 11
0.0
 20
0.0
 21
0.0
  0
LINE
  8
APS_GEOMETRY
 10
0.0
 11
0.0
 20
0.0
 21
0.762349
  0
LINE
  8
APS_GEOMETRY
 10
0.0
 11
0.867311
 20
0.762349
 21
1.62966
  0
LINE
  8
APS_GEOMETRY
 10
0.867311
 11
1.55232
 20
1.62966
 21
1.62966
  0
LINE
  8
APS_GEOMETRY
 10
1.55232
 11
1.55232
 20
1.62966
 21
1.342398
  0
LINE
  8
APS_GEOMETRY
 10
1.55232
 11
1.486029
 20
1.342398
 21
1.342398
  0
LINE
  8
APS_GEOMETRY
 10
1.486029
 11
1.486029
 20
1.342398
 21
1.276107
  0
ARC
  8
APS_GEOMETRY
 10
1.519192
 20
0.7453
 40
0.531842
 50
93.574988
 51
126.135055
  0
ARC
  8
APS_GEOMETRY
 10
1.649652
 20
0.566608
 40
0.75309
 50
126.134314
 51
151.504937
  0
LINE
  8
APS_GEOMETRY
 10
0.987793
 11
0.849415
 20
0.925894
 21
0.639894
  0
ARC
  8
APS_GEOMETRY
 10
0.057782
 20
1.046888
 40
0.890127
 50
310.078984
 51
332.791432
  0
ARC
  8
APS_GEOMETRY
 10
0.370127
 20
0.675692
 40
0.405003
 50
269.999898
 51
310.078823
  0
LINE
  8
APS_GEOMETRY
 10
0.370126
 11
0.370126
 20
0.270689
 21
0.160204
  0
ARC
  8
APS_GEOMETRY
 10
0.370126
 20
-0.259159
 40
0.419363
 50
90.0
 51
104.336645
  0
ARC
  8
APS_GEOMETRY
 10
0.337453
 20
-0.131314
 40
0.287409
 50
104.336913
 51
121.675608
  0
ARC
  8
APS_GEOMETRY
 10
0.287668
 20
-0.050629
 40
0.192601
 50
121.675469
 51
146.126054
  0
LINE
  8
CONSTRUCTION
 10
0.152615
 11
0.10065
 20
-1.038482
 21
-1.166909
  0
LINE
  8
CONSTRUCTION
 10
0.10065
 11
0.20458
 20
-1.166909
 21
-1.166909
  0
LINE
  8
CONSTRUCTION
 10
0.20458
 11
0.152615
 20
-1.166909
 21
-1.038482
  0
LINE
  8
CONSTRUCTION
 10
0.152615
 11
0.559547
 20
-1.038482
 21
-1.03848
  0
LINE
  8
CONSTRUCTION
 10
0.559547
 11
0.507582
 20
-1.03848
 21
-1.166908
  0
LINE
  8
CONSTRUCTION
 10
0.507582
 11
0.611512
 20
-1.166908
 21
-1.166908
  0
LINE
  8
CONSTRUCTION
 10
0.611512
 11
0.559547
 20
-1.166908
 21
-1.03848
  0
LINE
  8
CONSTRUCTION
 10
0.559547
 11
0.966478
 20
-1.03848
 21
-1.03848
  0
LINE
  8
CONSTRUCTION
 10
0.966478
 11
0.914513
 20
-1.03848
 21
-1.166908
  0
LINE
  8
CONSTRUCTION
 10
0.914513
 11
1.018442
 20
-1.166908
 21
-1.166908
  0
LINE
  8
CONSTRUCTION
 10
1.018442
 11
0.966478
 20
-1.166908
 21
-1.03848
  0
LINE
  8
CONSTRUCTION
 10
0.966478
 11
1.373408
 20
-1.03848
 21
-1.03848
  0
LINE
  8
CONSTRUCTION
 10
1.373408
 11
1.321443
 20
-1.03848
 21
-1.166908
  0
LINE
  8
CONSTRUCTION
 10
1.321443
 11
1.425373
 20
-1.166908
 21
-1.166908
  0
LINE
  8
CONSTRUCTION
 10
1.425373
 11
1.373408
 20
-1.166908
 21
-1.03848
  0
LINE
  8
CONSTRUCTION
 10
1.373408
 11
1.780281
 20
-1.03848
 21
-1.038482
  0
LINE
  8
CONSTRUCTION
 10
1.780281
 11
1.728316
 20
-1.038482
 21
-1.166909
  0
LINE
  8
CONSTRUCTION
 10
1.728316
 11
1.832246
 20
-1.166909
 21
-1.166909
  0
LINE
  8
CONSTRUCTION
 10
1.832246
 11
1.780281
 20
-1.166909
 21
-1.038482
  0
LINE
  8
CONSTRUCTION
 10
0.0
 11
4.0
 20
-1.561751
 21
-1.561751
  0
TEXT
  8
TEXT
 10
0.10065
 20
-1.405784
 30
0.0
 40
0.224
 50
0.0
  1
DOVETAIL DESIGNS
  0
TEXT
  8
TEXT
 10
2.276036
 20
-1.551751
 30
0.0
 40
0.099
 50
0.0
  1
& MILLWORK INC.
  0
TEXT
  8
TEXT
 10
1.092458
 20
-1.640461
 30
0.0
 40
0.07
 50
0.0
  1
Established 1979
  0
TEXT
  8
TEXT
 10
0.1
 20
-1.8
 30
0.0
 40
0.1
 50
0.0
  1
Phone: (406) 248-5010    Website: www.dovetailmt.com
  0
TEXT
  8
TEXT
 10
0.0
 20
-0.65
 30
0.0
 40
0.1
 50
0.0
  1
(3/4"x2-1/4")
  0
TEXT
  8
TEXT
 10
0.0
 20
-0.5
 30
0.0
 40
0.1
 50
0.0
  1
1-9/16"x1-5/8"
  0
TEXT
  8
TEXT
 10
0.0
 20
-0.25
 30
0.0
 40
0.15625
 50
0.0
  1
CN16
  0
ENDSEC
  0
EOF
