  0
SECTION
  2
ENTITIES
  0
ARC
  8
APS_GEOMETRY
 10
2.991963
 20
1.329559
 40
1.714321
 50
115.645577
 51
122.332436
  0
ARC
  8
APS_GEOMETRY
 10
2.795481
 20
1.639977
 40
1.346946
 50
122.332504
 51
129.59466
  0
ARC
  8
APS_GEOMETRY
 10
2.734348
 20
1.713884
 40
1.251032
 50
129.594536
 51
137.082758
  0
ARC
  8
APS_GEOMETRY
 10
2.701234
 20
1.744671
 40
1.205817
 50
137.082687
 51
144.341532
  0
ARC
  8
APS_GEOMETRY
 10
2.7431
 20
1.714645
 40
1.257337
 50
144.341971
 51
150.919052
  0
ARC
  8
APS_GEOMETRY
 10
2.985312
 20
1.579928
 40
1.534493
 50
150.918728
 51
156.467723
  0
ARC
  8
APS_GEOMETRY
 10
3.225513
 20
1.475315
 40
1.796486
 50
156.467451
 51
160.787185
  0
ARC
  8
APS_GEOMETRY
 10
4.268617
 20
1.111831
 40
2.901107
 50
160.787647
 51
163.797174
  0
ARC
  8
APS_GEOMETRY
 10
5.182721
 20
0.846199
 40
3.853024
 50
163.797013
 51
165.48348
  0
ARC
  8
APS_GEOMETRY
 10
27.50968
 20
-4.934773
 40
26.916257
 50
165.483564
 51
165.856307
  0
ARC
  8
APS_GEOMETRY
 10
-8.336815
 20
4.098335
 40
10.050866
 50
344.919914
 51
345.856171
  0
ARC
  8
APS_GEOMETRY
 10
-1.687755
 20
2.306771
 40
3.16467
 50
342.668741
 51
344.919732
  0
ARC
  8
APS_GEOMETRY
 10
-0.986395
 20
2.087876
 40
2.429945
 50
339.102156
 51
342.669318
  0
ARC
  8
APS_GEOMETRY
 10
-0.235031
 20
1.801003
 40
1.625679
 50
334.256541
 51
339.101754
  0
ARC
  8
APS_GEOMETRY
 10
-0.054592
 20
1.713988
 40
1.425355
 50
328.261398
 51
334.25676
  0
ARC
  8
APS_GEOMETRY
 10
0.111111
 20
1.611504
 40
1.23052
 50
321.377371
 51
328.260985
  0
ARC
  8
APS_GEOMETRY
 10
0.126425
 20
1.599258
 40
1.210912
 50
314.002325
 51
321.377801
  0
ARC
  8
APS_GEOMETRY
 10
0.051586
 20
1.676767
 40
1.318655
 50
306.59668
 51
314.001806
  0
ARC
  8
APS_GEOMETRY
 10
-0.026778
 20
1.782274
 40
1.45008
 50
299.578023
 51
306.597197
  0
ARC
  8
APS_GEOMETRY
 10
-0.250929
 20
2.177218
 40
1.9042
 50
293.225702
 51
299.57781
  0
LINE
  8
APS_GEOMETRY
 10
0.5
 11
0.46875
 20
0.427338
 21
0.0
  0
LINE
  8
APS_GEOMETRY
 10
0.46875
 11
0.0
 20
0.0
 21
0.0
  0
LINE
  8
APS_GEOMETRY
 10
0.0
 11
0.0
 20
0.0
 21
0.457836
  0
LINE
  8
APS_GEOMETRY
 10
0.0
 11
1.828563
 20
0.457836
 21
3.625
  0
LINE
  8
APS_GEOMETRY
 10
1.828563
 11
2.25
 20
3.625
 21
3.625
  0
LINE
  8
APS_GEOMETRY
 10
2.25
 11
2.25
 20
3.625
 21
2.875
  0
LINE
  8
CONSTRUCTION
 10
0.152615
 11
0.10065
 20
-1.038482
 21
-1.166909
  0
LINE
  8
CONSTRUCTION
 10
0.10065
 11
0.20458
 20
-1.166909
 21
-1.166909
  0
LINE
  8
CONSTRUCTION
 10
0.20458
 11
0.152615
 20
-1.166909
 21
-1.038482
  0
LINE
  8
CONSTRUCTION
 10
0.152615
 11
0.559547
 20
-1.038482
 21
-1.03848
  0
LINE
  8
CONSTRUCTION
 10
0.559547
 11
0.507582
 20
-1.03848
 21
-1.166908
  0
LINE
  8
CONSTRUCTION
 10
0.507582
 11
0.611512
 20
-1.166908
 21
-1.166908
  0
LINE
  8
CONSTRUCTION
 10
0.611512
 11
0.559547
 20
-1.166908
 21
-1.03848
  0
LINE
  8
CONSTRUCTION
 10
0.559547
 11
0.966478
 20
-1.03848
 21
-1.03848
  0
LINE
  8
CONSTRUCTION
 10
0.966478
 11
0.914513
 20
-1.03848
 21
-1.166908
  0
LINE
  8
CONSTRUCTION
 10
0.914513
 11
1.018442
 20
-1.166908
 21
-1.166908
  0
LINE
  8
CONSTRUCTION
 10
1.018442
 11
0.966478
 20
-1.166908
 21
-1.03848
  0
LINE
  8
CONSTRUCTION
 10
0.966478
 11
1.373408
 20
-1.03848
 21
-1.03848
  0
LINE
  8
CONSTRUCTION
 10
1.373408
 11
1.321443
 20
-1.03848
 21
-1.166908
  0
LINE
  8
CONSTRUCTION
 10
1.321443
 11
1.425373
 20
-1.166908
 21
-1.166908
  0
LINE
  8
CONSTRUCTION
 10
1.425373
 11
1.373408
 20
-1.166908
 21
-1.03848
  0
LINE
  8
CONSTRUCTION
 10
1.373408
 11
1.780281
 20
-1.03848
 21
-1.038482
  0
LINE
  8
CONSTRUCTION
 10
1.780281
 11
1.728316
 20
-1.038482
 21
-1.166909
  0
LINE
  8
CONSTRUCTION
 10
1.728316
 11
1.832246
 20
-1.166909
 21
-1.166909
  0
LINE
  8
CONSTRUCTION
 10
1.832246
 11
1.780281
 20
-1.166909
 21
-1.038482
  0
LINE
  8
CONSTRUCTION
 10
0.0
 11
4.0
 20
-1.561751
 21
-1.561751
  0
TEXT
  8
TEXT
 10
0.10065
 20
-1.405784
 30
0.0
 40
0.224
 50
0.0
  1
DOVETAIL DESIGNS
  0
TEXT
  8
TEXT
 10
2.276036
 20
-1.551751
 30
0.0
 40
0.099
 50
0.0
  1
& MILLWORK INC.
  0
TEXT
  8
TEXT
 10
1.092458
 20
-1.640461
 30
0.0
 40
0.07
 50
0.0
  1
Established 1979
  0
TEXT
  8
TEXT
 10
0.1
 20
-1.8
 30
0.0
 40
0.1
 50
0.0
  1
Phone: (406) 248-5010    Website: www.dovetailmt.com
  0
TEXT
  8
TEXT
 10
0.0
 20
-0.65
 30
0.0
 40
0.1
 50
0.0
  1
(3/4"x4-1/4")
  0
TEXT
  8
TEXT
 10
0.0
 20
-0.5
 30
0.0
 40
0.1
 50
0.0
  1
2-1/4"x3-5/8"
  0
TEXT
  8
TEXT
 10
0.0
 20
-0.25
 30
0.0
 40
0.15625
 50
0.0
  1
CN152
  0
ENDSEC
  0
EOF
