  0
SECTION
  2
ENTITIES
  0
ARC
  8
APS_GEOMETRY
 10
1.255678
 20
3.12045
 40
0.6885
 50
277.727864
 51
0.915263
  0
LINE
  8
APS_GEOMETRY
 10
1.94409
 11
1.944092
 20
3.131448
 21
3.213032
  0
LINE
  8
APS_GEOMETRY
 10
1.944092
 11
2.054463
 20
3.213032
 21
3.213028
  0
LINE
  8
APS_GEOMETRY
 10
2.054463
 11
2.054479
 20
3.213028
 21
3.634173
  0
LINE
  8
APS_GEOMETRY
 10
2.054479
 11
1.53049
 20
3.634173
 21
3.634193
  0
LINE
  8
APS_GEOMETRY
 10
1.53049
 11
0.000037
 20
3.634193
 21
0.983118
  0
LINE
  8
APS_GEOMETRY
 10
0.000037
 11
0.0
 20
0.983118
 21
0.0
  0
LINE
  8
APS_GEOMETRY
 10
0.0
 11
0.217814
 20
0.0
 21
-0.000007
  0
LINE
  8
APS_GEOMETRY
 10
0.217814
 11
0.27531
 20
-0.000007
 21
0.184712
  0
ARC
  8
APS_GEOMETRY
 10
0.117568
 20
0.531128
 40
0.38064
 50
294.482276
 51
30.939804
  0
LINE
  8
APS_GEOMETRY
 10
0.444046
 11
0.509669
 20
0.72683
 21
0.937658
  0
LINE
  8
APS_GEOMETRY
 10
0.509669
 11
0.40323
 20
0.937658
 21
1.004161
  0
ARC
  8
APS_GEOMETRY
 10
3.732705
 20
-0.544445
 40
3.672
 50
130.493458
 51
155.05591
  0
LINE
  8
APS_GEOMETRY
 10
1.34825
 11
1.348259
 20
2.248038
 21
2.438203
  0
LINE
  8
CONSTRUCTION
 10
0.152615
 11
0.10065
 20
-1.038482
 21
-1.166909
  0
LINE
  8
CONSTRUCTION
 10
0.10065
 11
0.20458
 20
-1.166909
 21
-1.166909
  0
LINE
  8
CONSTRUCTION
 10
0.20458
 11
0.152615
 20
-1.166909
 21
-1.038482
  0
LINE
  8
CONSTRUCTION
 10
0.152615
 11
0.559547
 20
-1.038482
 21
-1.03848
  0
LINE
  8
CONSTRUCTION
 10
0.559547
 11
0.507582
 20
-1.03848
 21
-1.166908
  0
LINE
  8
CONSTRUCTION
 10
0.507582
 11
0.611512
 20
-1.166908
 21
-1.166908
  0
LINE
  8
CONSTRUCTION
 10
0.611512
 11
0.559547
 20
-1.166908
 21
-1.03848
  0
LINE
  8
CONSTRUCTION
 10
0.559547
 11
0.966478
 20
-1.03848
 21
-1.03848
  0
LINE
  8
CONSTRUCTION
 10
0.966478
 11
0.914513
 20
-1.03848
 21
-1.166908
  0
LINE
  8
CONSTRUCTION
 10
0.914513
 11
1.018442
 20
-1.166908
 21
-1.166908
  0
LINE
  8
CONSTRUCTION
 10
1.018442
 11
0.966478
 20
-1.166908
 21
-1.03848
  0
LINE
  8
CONSTRUCTION
 10
0.966478
 11
1.373408
 20
-1.03848
 21
-1.03848
  0
LINE
  8
CONSTRUCTION
 10
1.373408
 11
1.321443
 20
-1.03848
 21
-1.166908
  0
LINE
  8
CONSTRUCTION
 10
1.321443
 11
1.425373
 20
-1.166908
 21
-1.166908
  0
LINE
  8
CONSTRUCTION
 10
1.425373
 11
1.373408
 20
-1.166908
 21
-1.03848
  0
LINE
  8
CONSTRUCTION
 10
1.373408
 11
1.780281
 20
-1.03848
 21
-1.038482
  0
LINE
  8
CONSTRUCTION
 10
1.780281
 11
1.728316
 20
-1.038482
 21
-1.166909
  0
LINE
  8
CONSTRUCTION
 10
1.728316
 11
1.832246
 20
-1.166909
 21
-1.166909
  0
LINE
  8
CONSTRUCTION
 10
1.832246
 11
1.780281
 20
-1.166909
 21
-1.038482
  0
LINE
  8
CONSTRUCTION
 10
0.0
 11
4.0
 20
-1.561751
 21
-1.561751
  0
TEXT
  8
TEXT
 10
0.10065
 20
-1.405784
 30
0.0
 40
0.224
 50
0.0
  1
DOVETAIL DESIGNS
  0
TEXT
  8
TEXT
 10
2.276036
 20
-1.551751
 30
0.0
 40
0.099
 50
0.0
  1
& MILLWORK INC.
  0
TEXT
  8
TEXT
 10
1.092458
 20
-1.640461
 30
0.0
 40
0.07
 50
0.0
  1
Established 1979
  0
TEXT
  8
TEXT
 10
0.1
 20
-1.8
 30
0.0
 40
0.1
 50
0.0
  1
Phone: (406) 248-5010    Website: www.dovetailmt.com
  0
TEXT
  8
TEXT
 10
0.0
 20
-0.65
 30
0.0
 40
0.1
 50
0.0
  1
(3/4"x4-5/32")
  0
TEXT
  8
TEXT
 10
0.0
 20
-0.5
 30
0.0
 40
0.1
 50
0.0
  1
2-1/16"x3-5/8"
  0
TEXT
  8
TEXT
 10
0.0
 20
-0.25
 30
0.0
 40
0.15625
 50
0.0
  1
CN150
  0
ENDSEC
  0
EOF
