  0
SECTION
  2
ENTITIES
  0
ARC
  8
APS_GEOMETRY
 10
1.690411
 20
2.53125
 40
0.987286
 50
101.119895
 51
180.0
  0
ARC
  8
APS_GEOMETRY
 10
1.713825
 20
2.53125
 40
1.0107
 50
180.0
 51
184.415936
  0
ARC
  8
APS_GEOMETRY
 10
1.584763
 20
2.521279
 40
0.881253
 50
184.415703
 51
188.962778
  0
ARC
  8
APS_GEOMETRY
 10
1.531011
 20
2.512802
 40
0.826837
 50
188.962789
 51
197.869854
  0
ARC
  8
APS_GEOMETRY
 10
1.606758
 20
2.537234
 40
0.906427
 50
197.870444
 51
205.428881
  0
ARC
  8
APS_GEOMETRY
 10
1.749754
 20
2.605211
 40
1.064758
 50
205.428392
 51
208.325502
  0
ARC
  8
APS_GEOMETRY
 10
2.155667
 20
2.824012
 40
1.525886
 50
208.325708
 51
210.48296
  0
ARC
  8
APS_GEOMETRY
 10
2.51477
 20
3.035378
 40
1.942576
 50
210.482495
 51
211.819145
  0
ARC
  8
APS_GEOMETRY
 10
7.443672
 20
6.093852
 40
7.743295
 50
211.820053
 51
212.276167
  0
ARC
  8
APS_GEOMETRY
 10
-4.243448
 20
-1.287443
 40
6.079595
 50
31.699502
 51
32.274622
  0
ARC
  8
APS_GEOMETRY
 10
-0.327065
 20
1.131239
 40
1.476544
 50
29.996583
 51
31.702119
  0
ARC
  8
APS_GEOMETRY
 10
-0.056563
 20
1.287424
 40
1.16419
 50
27.266664
 51
29.995175
  0
ARC
  8
APS_GEOMETRY
 10
0.213786
 20
1.426775
 40
0.86004
 50
23.71941
 51
27.265917
  0
ARC
  8
APS_GEOMETRY
 10
0.27444
 20
1.453422
 40
0.793791
 50
15.305296
 51
23.719628
  0
ARC
  8
APS_GEOMETRY
 10
0.07073
 20
1.39766
 40
1.004995
 50
6.960615
 51
15.306004
  0
ARC
  8
APS_GEOMETRY
 10
-0.160756
 20
1.3694
 40
1.238199
 50
3.271746
 51
6.960538
  0
ARC
  8
APS_GEOMETRY
 10
-0.609606
 20
1.343761
 40
1.687781
 50
359.999618
 51
3.271086
  0
ARC
  8
APS_GEOMETRY
 10
0.094411
 20
1.34375
 40
0.983764
 50
280.022756
 51
0.0
  0
LINE
  8
APS_GEOMETRY
 10
0.265625
 11
0.265625
 20
0.375
 21
0.0
  0
LINE
  8
APS_GEOMETRY
 10
0.265625
 11
0.0
 20
0.0
 21
0.0
  0
LINE
  8
APS_GEOMETRY
 10
0.0
 11
0.0
 20
0.0
 21
4.25
  0
LINE
  8
APS_GEOMETRY
 10
0.0
 11
1.5
 20
4.25
 21
4.25
  0
LINE
  8
APS_GEOMETRY
 10
1.5
 11
1.5
 20
4.25
 21
3.5
  0
LINE
  8
CONSTRUCTION
 10
0.152615
 11
0.10065
 20
-1.038482
 21
-1.166909
  0
LINE
  8
CONSTRUCTION
 10
0.10065
 11
0.20458
 20
-1.166909
 21
-1.166909
  0
LINE
  8
CONSTRUCTION
 10
0.20458
 11
0.152615
 20
-1.166909
 21
-1.038482
  0
LINE
  8
CONSTRUCTION
 10
0.152615
 11
0.559547
 20
-1.038482
 21
-1.03848
  0
LINE
  8
CONSTRUCTION
 10
0.559547
 11
0.507582
 20
-1.03848
 21
-1.166908
  0
LINE
  8
CONSTRUCTION
 10
0.507582
 11
0.611512
 20
-1.166908
 21
-1.166908
  0
LINE
  8
CONSTRUCTION
 10
0.611512
 11
0.559547
 20
-1.166908
 21
-1.03848
  0
LINE
  8
CONSTRUCTION
 10
0.559547
 11
0.966478
 20
-1.03848
 21
-1.03848
  0
LINE
  8
CONSTRUCTION
 10
0.966478
 11
0.914513
 20
-1.03848
 21
-1.166908
  0
LINE
  8
CONSTRUCTION
 10
0.914513
 11
1.018442
 20
-1.166908
 21
-1.166908
  0
LINE
  8
CONSTRUCTION
 10
1.018442
 11
0.966478
 20
-1.166908
 21
-1.03848
  0
LINE
  8
CONSTRUCTION
 10
0.966478
 11
1.373408
 20
-1.03848
 21
-1.03848
  0
LINE
  8
CONSTRUCTION
 10
1.373408
 11
1.321443
 20
-1.03848
 21
-1.166908
  0
LINE
  8
CONSTRUCTION
 10
1.321443
 11
1.425373
 20
-1.166908
 21
-1.166908
  0
LINE
  8
CONSTRUCTION
 10
1.425373
 11
1.373408
 20
-1.166908
 21
-1.03848
  0
LINE
  8
CONSTRUCTION
 10
1.373408
 11
1.780281
 20
-1.03848
 21
-1.038482
  0
LINE
  8
CONSTRUCTION
 10
1.780281
 11
1.728316
 20
-1.038482
 21
-1.166909
  0
LINE
  8
CONSTRUCTION
 10
1.728316
 11
1.832246
 20
-1.166909
 21
-1.166909
  0
LINE
  8
CONSTRUCTION
 10
1.832246
 11
1.780281
 20
-1.166909
 21
-1.038482
  0
LINE
  8
CONSTRUCTION
 10
0.0
 11
4.0
 20
-1.561751
 21
-1.561751
  0
TEXT
  8
TEXT
 10
0.10065
 20
-1.405784
 30
0.0
 40
0.224
 50
0.0
  1
DOVETAIL DESIGNS
  0
TEXT
  8
TEXT
 10
2.276036
 20
-1.551751
 30
0.0
 40
0.099
 50
0.0
  1
& MILLWORK INC.
  0
TEXT
  8
TEXT
 10
1.092458
 20
-1.640461
 30
0.0
 40
0.07
 50
0.0
  1
Established 1979
  0
TEXT
  8
TEXT
 10
0.1
 20
-1.8
 30
0.0
 40
0.1
 50
0.0
  1
Phone: (406) 248-5010    Website: www.dovetailmt.com
  0
TEXT
  8
TEXT
 10
0.0
 20
-0.25
 30
0.0
 40
0.15625
 50
0.0
  1
CN143
  0
TEXT
  8
TEXT
 10
0.0
 20
-0.5
 30
0.0
 40
0.1
 50
0.0
  1
1-1/2"x4-1/4"
  0
ENDSEC
  0
EOF
