  0
SECTION
  2
ENTITIES
  0
ARC
  8
APS_GEOMETRY
 10
1.013324
 20
-0.040672
 40
0.771329
 50
86.481597
 51
176.977427
  0
LINE
  8
APS_GEOMETRY
 10
0.243068
 11
0.0
 20
0.0
 21
0.0
  0
LINE
  8
APS_GEOMETRY
 10
0.0
 11
0.0
 20
0.0
 21
0.500867
  0
LINE
  8
APS_GEOMETRY
 10
0.0
 11
2.964692
 20
0.500867
 21
3.46556
  0
LINE
  8
APS_GEOMETRY
 10
2.964692
 11
3.605508
 20
3.46556
 21
3.46556
  0
LINE
  8
APS_GEOMETRY
 10
3.605508
 11
3.605508
 20
3.46556
 21
3.244589
  0
ARC
  8
APS_GEOMETRY
 10
3.910878
 20
1.597657
 40
1.675003
 50
100.504341
 51
104.218888
  0
ARC
  8
APS_GEOMETRY
 10
3.8354
 20
1.895553
 40
1.367694
 50
104.219131
 51
108.61347
  0
ARC
  8
APS_GEOMETRY
 10
3.782525
 20
2.052505
 40
1.202075
 50
108.612837
 51
113.92108
  0
ARC
  8
APS_GEOMETRY
 10
3.66072
 20
2.327117
 40
0.901661
 50
113.921506
 51
120.419012
  0
ARC
  8
APS_GEOMETRY
 10
3.590616
 20
2.446514
 40
0.763205
 50
120.418954
 51
128.39333
  0
ARC
  8
APS_GEOMETRY
 10
3.494854
 20
2.567363
 40
0.609014
 50
128.393287
 51
137.759815
  0
ARC
  8
APS_GEOMETRY
 10
3.558998
 20
2.509118
 40
0.695656
 50
137.759724
 51
145.603843
  0
ARC
  8
APS_GEOMETRY
 10
3.940374
 20
2.248028
 40
1.157842
 50
145.604084
 51
151.022957
  0
ARC
  8
APS_GEOMETRY
 10
4.316219
 20
2.039899
 40
1.587467
 50
151.023243
 51
154.110127
  0
ARC
  8
APS_GEOMETRY
 10
10.007509
 20
-0.722505
 40
7.913734
 50
154.109439
 51
155.020898
  0
ARC
  8
APS_GEOMETRY
 10
-2.597378
 20
5.149633
 40
5.991847
 50
333.837063
 51
335.021081
  0
ARC
  8
APS_GEOMETRY
 10
1.388509
 20
3.191537
 40
1.550965
 50
330.529891
 51
333.837012
  0
ARC
  8
APS_GEOMETRY
 10
1.731063
 20
2.997962
 40
1.1575
 50
325.013291
 51
330.530006
  0
ARC
  8
APS_GEOMETRY
 10
2.075579
 20
2.756847
 40
0.736991
 50
317.283274
 51
325.013342
  0
ARC
  8
APS_GEOMETRY
 10
2.123479
 20
2.712622
 40
0.671797
 50
308.286996
 51
317.283202
  0
ARC
  8
APS_GEOMETRY
 10
2.079865
 20
2.767883
 40
0.742196
 50
299.844494
 51
308.286523
  0
ARC
  8
APS_GEOMETRY
 10
2.06891
 20
2.786943
 40
0.76418
 50
291.634696
 51
299.845743
  0
ARC
  8
APS_GEOMETRY
 10
2.079188
 20
2.761074
 40
0.736343
 50
283.221428
 51
291.633401
  0
ARC
  8
APS_GEOMETRY
 10
2.088985
 20
2.719337
 40
0.693472
 50
274.1811
 51
283.222193
  0
ARC
  8
APS_GEOMETRY
 10
2.096811
 20
2.612353
 40
0.586202
 50
264.105959
 51
274.180545
  0
LINE
  8
APS_GEOMETRY
 10
2.036615
 11
2.036615
 20
2.02925
 21
1.764084
  0
ARC
  8
APS_GEOMETRY
 10
2.030628
 20
1.42307
 40
0.341067
 50
88.994188
 51
175.916099
  0
LINE
  8
APS_GEOMETRY
 10
1.690427
 11
1.506285
 20
1.447359
 21
1.447359
  0
LINE
  8
APS_GEOMETRY
 10
1.506285
 11
1.506285
 20
1.447359
 21
0.968589
  0
LINE
  8
APS_GEOMETRY
 10
1.506285
 11
1.06066
 20
0.968589
 21
0.968589
  0
LINE
  8
APS_GEOMETRY
 10
1.06066
 11
1.06066
 20
0.968589
 21
0.729203
  0
LINE
  8
CONSTRUCTION
 10
0.152615
 11
0.10065
 20
-1.038482
 21
-1.166909
  0
LINE
  8
CONSTRUCTION
 10
0.10065
 11
0.20458
 20
-1.166909
 21
-1.166909
  0
LINE
  8
CONSTRUCTION
 10
0.20458
 11
0.152615
 20
-1.166909
 21
-1.038482
  0
LINE
  8
CONSTRUCTION
 10
0.152615
 11
0.559547
 20
-1.038482
 21
-1.03848
  0
LINE
  8
CONSTRUCTION
 10
0.559547
 11
0.507582
 20
-1.03848
 21
-1.166908
  0
LINE
  8
CONSTRUCTION
 10
0.507582
 11
0.611512
 20
-1.166908
 21
-1.166908
  0
LINE
  8
CONSTRUCTION
 10
0.611512
 11
0.559547
 20
-1.166908
 21
-1.03848
  0
LINE
  8
CONSTRUCTION
 10
0.559547
 11
0.966478
 20
-1.03848
 21
-1.03848
  0
LINE
  8
CONSTRUCTION
 10
0.966478
 11
0.914513
 20
-1.03848
 21
-1.166908
  0
LINE
  8
CONSTRUCTION
 10
0.914513
 11
1.018442
 20
-1.166908
 21
-1.166908
  0
LINE
  8
CONSTRUCTION
 10
1.018442
 11
0.966478
 20
-1.166908
 21
-1.03848
  0
LINE
  8
CONSTRUCTION
 10
0.966478
 11
1.373408
 20
-1.03848
 21
-1.03848
  0
LINE
  8
CONSTRUCTION
 10
1.373408
 11
1.321443
 20
-1.03848
 21
-1.166908
  0
LINE
  8
CONSTRUCTION
 10
1.321443
 11
1.425373
 20
-1.166908
 21
-1.166908
  0
LINE
  8
CONSTRUCTION
 10
1.425373
 11
1.373408
 20
-1.166908
 21
-1.03848
  0
LINE
  8
CONSTRUCTION
 10
1.373408
 11
1.780281
 20
-1.03848
 21
-1.038482
  0
LINE
  8
CONSTRUCTION
 10
1.780281
 11
1.728316
 20
-1.038482
 21
-1.166909
  0
LINE
  8
CONSTRUCTION
 10
1.728316
 11
1.832246
 20
-1.166909
 21
-1.166909
  0
LINE
  8
CONSTRUCTION
 10
1.832246
 11
1.780281
 20
-1.166909
 21
-1.038482
  0
LINE
  8
CONSTRUCTION
 10
0.0
 11
4.0
 20
-1.561751
 21
-1.561751
  0
TEXT
  8
TEXT
 10
0.10065
 20
-1.405784
 30
0.0
 40
0.224
 50
0.0
  1
DOVETAIL DESIGNS
  0
TEXT
  8
TEXT
 10
2.276036
 20
-1.551751
 30
0.0
 40
0.099
 50
0.0
  1
& MILLWORK INC.
  0
TEXT
  8
TEXT
 10
1.092458
 20
-1.640461
 30
0.0
 40
0.07
 50
0.0
  1
Established 1979
  0
TEXT
  8
TEXT
 10
0.1
 20
-1.8
 30
0.0
 40
0.1
 50
0.0
  1
Phone: (406) 248-5010    Website: www.dovetailmt.com
  0
TEXT
  8
TEXT
 10
0.0
 20
-0.65
 30
0.0
 40
0.1
 50
0.0
  1
(3/4"x5")
  0
TEXT
  8
TEXT
 10
0.0
 20
-0.5
 30
0.0
 40
0.1
 50
0.0
  1
3-5/8"x3-1/2"
  0
TEXT
  8
TEXT
 10
0.0
 20
-0.25
 30
0.0
 40
0.15625
 50
0.0
  1
CN111
  0
ENDSEC
  0
EOF
