  0
SECTION
  2
ENTITIES
  0
ARC
  8
APS_GEOMETRY
 10
0.925935
 20
0.707462
 40
0.216952
 50
184.458055
 51
271.735244
  0
LINE
  8
APS_GEOMETRY
 10
0.932505
 11
0.932505
 20
0.490609
 21
0.0
  0
LINE
  8
APS_GEOMETRY
 10
0.932505
 11
0.0
 20
0.0
 21
0.0
  0
LINE
  8
APS_GEOMETRY
 10
0.0
 11
0.0
 20
0.0
 21
0.603182
  0
ARC
  8
APS_GEOMETRY
 10
0.10375
 20
0.603182
 40
0.10375
 50
106.195915
 51
180.0
  0
ARC
  8
APS_GEOMETRY
 10
0.408856
 20
-0.447281
 40
1.197625
 50
76.598075
 51
106.195905
  0
ARC
  8
APS_GEOMETRY
 10
0.679417
 20
0.688242
 40
0.030314
 50
4.459138
 51
76.599656
  0
LINE
  8
CONSTRUCTION
 10
0.152615
 11
0.10065
 20
-1.038482
 21
-1.166909
  0
LINE
  8
CONSTRUCTION
 10
0.10065
 11
0.20458
 20
-1.166909
 21
-1.166909
  0
LINE
  8
CONSTRUCTION
 10
0.20458
 11
0.152615
 20
-1.166909
 21
-1.038482
  0
LINE
  8
CONSTRUCTION
 10
0.152615
 11
0.559547
 20
-1.038482
 21
-1.03848
  0
LINE
  8
CONSTRUCTION
 10
0.559547
 11
0.507582
 20
-1.03848
 21
-1.166908
  0
LINE
  8
CONSTRUCTION
 10
0.507582
 11
0.611512
 20
-1.166908
 21
-1.166908
  0
LINE
  8
CONSTRUCTION
 10
0.611512
 11
0.559547
 20
-1.166908
 21
-1.03848
  0
LINE
  8
CONSTRUCTION
 10
0.559547
 11
0.966478
 20
-1.03848
 21
-1.03848
  0
LINE
  8
CONSTRUCTION
 10
0.966478
 11
0.914513
 20
-1.03848
 21
-1.166908
  0
LINE
  8
CONSTRUCTION
 10
0.914513
 11
1.018442
 20
-1.166908
 21
-1.166908
  0
LINE
  8
CONSTRUCTION
 10
1.018442
 11
0.966478
 20
-1.166908
 21
-1.03848
  0
LINE
  8
CONSTRUCTION
 10
0.966478
 11
1.373408
 20
-1.03848
 21
-1.03848
  0
LINE
  8
CONSTRUCTION
 10
1.373408
 11
1.321443
 20
-1.03848
 21
-1.166908
  0
LINE
  8
CONSTRUCTION
 10
1.321443
 11
1.425373
 20
-1.166908
 21
-1.166908
  0
LINE
  8
CONSTRUCTION
 10
1.425373
 11
1.373408
 20
-1.166908
 21
-1.03848
  0
LINE
  8
CONSTRUCTION
 10
1.373408
 11
1.780281
 20
-1.03848
 21
-1.038482
  0
LINE
  8
CONSTRUCTION
 10
1.780281
 11
1.728316
 20
-1.038482
 21
-1.166909
  0
LINE
  8
CONSTRUCTION
 10
1.728316
 11
1.832246
 20
-1.166909
 21
-1.166909
  0
LINE
  8
CONSTRUCTION
 10
1.832246
 11
1.780281
 20
-1.166909
 21
-1.038482
  0
LINE
  8
CONSTRUCTION
 10
0.0
 11
4.0
 20
-1.561751
 21
-1.561751
  0
TEXT
  8
TEXT
 10
0.10065
 20
-1.405784
 30
0.0
 40
0.224
 50
0.0
  1
DOVETAIL DESIGNS
  0
TEXT
  8
TEXT
 10
2.276036
 20
-1.551751
 30
0.0
 40
0.099
 50
0.0
  1
& MILLWORK INC.
  0
TEXT
  8
TEXT
 10
1.092458
 20
-1.640461
 30
0.0
 40
0.07
 50
0.0
  1
Established 1979
  0
TEXT
  8
TEXT
 10
0.1
 20
-1.8
 30
0.0
 40
0.1
 50
0.0
  1
Phone: (406) 248-5010    Website: www.dovetailmt.com
  0
TEXT
  8
TEXT
 10
0.0
 20
-0.5
 30
0.0
 40
0.1
 50
0.0
  1
3/4"x15/16"
  0
TEXT
  8
TEXT
 10
0.0
 20
-0.25
 30
0.0
 40
0.15625
 50
0.0
  1
BO48
  0
ENDSEC
  0
EOF
