  0
SECTION
  2
ENTITIES
  0
ARC
  8
APS_GEOMETRY
 10
0.011793
 20
2.539047
 40
0.211282
 50
85.002197
 51
93.199712
  0
LINE
  8
APS_GEOMETRY
 10
0.0
 11
0.0
 20
2.75
 21
0.25
  0
LINE
  8
APS_GEOMETRY
 10
0.0
 11
0.46875
 20
0.25
 21
0.25
  0
LINE
  8
APS_GEOMETRY
 10
0.46875
 11
0.5313
 20
0.25
 21
0.0
  0
LINE
  8
APS_GEOMETRY
 10
0.5313
 11
0.7813
 20
0.0
 21
0.0
  0
ARC
  8
APS_GEOMETRY
 10
0.7813
 20
0.0625
 40
0.0625
 50
270.0
 51
0.0
  0
LINE
  8
APS_GEOMETRY
 10
0.8438
 11
0.8438
 20
0.0625
 21
0.6875
  0
ARC
  8
APS_GEOMETRY
 10
0.7813
 20
0.6875
 40
0.0625
 50
0.0
 51
90.0
  0
LINE
  8
APS_GEOMETRY
 10
0.7813
 11
0.6563
 20
0.75
 21
0.75
  0
LINE
  8
APS_GEOMETRY
 10
0.6563
 11
0.6563
 20
0.75
 21
1.0625
  0
ARC
  8
APS_GEOMETRY
 10
0.687492
 20
1.310546
 40
0.25
 50
179.552383
 51
262.832641
  0
LINE
  8
APS_GEOMETRY
 10
0.4375
 11
0.37505
 20
1.3125
 21
1.9375
  0
LINE
  8
APS_GEOMETRY
 10
0.37505
 11
0.15625
 20
1.9375
 21
2.625
  0
ARC
  8
APS_GEOMETRY
 10
-0.333382
 20
2.469162
 40
0.513833
 50
17.654982
 51
20.104068
  0
ARC
  8
APS_GEOMETRY
 10
-0.11988
 20
2.547323
 40
0.286474
 50
20.101704
 51
23.90673
  0
ARC
  8
APS_GEOMETRY
 10
-0.068712
 20
2.569993
 40
0.230509
 50
23.909312
 51
29.198324
  0
ARC
  8
APS_GEOMETRY
 10
-0.00697
 20
2.604497
 40
0.15978
 50
29.198305
 51
36.097385
  0
ARC
  8
APS_GEOMETRY
 10
0.020136
 20
2.624267
 40
0.12623
 50
36.095271
 51
54.475092
  0
ARC
  8
APS_GEOMETRY
 10
0.024022
 20
2.629707
 40
0.119545
 50
54.475798
 51
75.483277
  0
ARC
  8
APS_GEOMETRY
 10
0.01753
 20
2.604624
 40
0.145455
 50
75.484356
 51
85.003048
  0
LINE
  8
CONSTRUCTION
 10
0.152615
 11
0.10065
 20
-1.038482
 21
-1.166909
  0
LINE
  8
CONSTRUCTION
 10
0.10065
 11
0.20458
 20
-1.166909
 21
-1.166909
  0
LINE
  8
CONSTRUCTION
 10
0.20458
 11
0.152615
 20
-1.166909
 21
-1.038482
  0
LINE
  8
CONSTRUCTION
 10
0.152615
 11
0.559547
 20
-1.038482
 21
-1.03848
  0
LINE
  8
CONSTRUCTION
 10
0.559547
 11
0.507582
 20
-1.03848
 21
-1.166908
  0
LINE
  8
CONSTRUCTION
 10
0.507582
 11
0.611512
 20
-1.166908
 21
-1.166908
  0
LINE
  8
CONSTRUCTION
 10
0.611512
 11
0.559547
 20
-1.166908
 21
-1.03848
  0
LINE
  8
CONSTRUCTION
 10
0.559547
 11
0.966478
 20
-1.03848
 21
-1.03848
  0
LINE
  8
CONSTRUCTION
 10
0.966478
 11
0.914513
 20
-1.03848
 21
-1.166908
  0
LINE
  8
CONSTRUCTION
 10
0.914513
 11
1.018442
 20
-1.166908
 21
-1.166908
  0
LINE
  8
CONSTRUCTION
 10
1.018442
 11
0.966478
 20
-1.166908
 21
-1.03848
  0
LINE
  8
CONSTRUCTION
 10
0.966478
 11
1.373408
 20
-1.03848
 21
-1.03848
  0
LINE
  8
CONSTRUCTION
 10
1.373408
 11
1.321443
 20
-1.03848
 21
-1.166908
  0
LINE
  8
CONSTRUCTION
 10
1.321443
 11
1.425373
 20
-1.166908
 21
-1.166908
  0
LINE
  8
CONSTRUCTION
 10
1.425373
 11
1.373408
 20
-1.166908
 21
-1.03848
  0
LINE
  8
CONSTRUCTION
 10
1.373408
 11
1.780281
 20
-1.03848
 21
-1.038482
  0
LINE
  8
CONSTRUCTION
 10
1.780281
 11
1.728316
 20
-1.038482
 21
-1.166909
  0
LINE
  8
CONSTRUCTION
 10
1.728316
 11
1.832246
 20
-1.166909
 21
-1.166909
  0
LINE
  8
CONSTRUCTION
 10
1.832246
 11
1.780281
 20
-1.166909
 21
-1.038482
  0
LINE
  8
CONSTRUCTION
 10
0.0
 11
4.0
 20
-1.561751
 21
-1.561751
  0
TEXT
  8
TEXT
 10
0.1
 20
-1.8
 30
0.0
 40
0.1
 50
0.0
  1
Phone: (406) 248-5010    Website: www.dovetailmt.com
  0
TEXT
  8
TEXT
 10
1.092458
 20
-1.640461
 30
0.0
 40
0.07
 50
0.0
  1
Established 1979
  0
TEXT
  8
TEXT
 10
2.276036
 20
-1.551751
 30
0.0
 40
0.099
 50
0.0
  1
& MILLWORK INC.
  0
TEXT
  8
TEXT
 10
0.10065
 20
-1.405784
 30
0.0
 40
0.224
 50
0.0
  1
DOVETAIL DESIGNS
  0
TEXT
  8
TEXT
 10
0.0
 20
-0.25
 30
0.0
 40
0.15625
 50
0.0
  1
BC903
  0
TEXT
  8
TEXT
 10
0.0
 20
-0.5
 30
0.0
 40
0.1
 50
0.0
  1
15/16"x2-3/4"
  0
ENDSEC
  0
EOF
