  0
SECTION
  2
ENTITIES
  0
ARC
  8
APS_GEOMETRY
 10
1.025494
 20
1.83419
 40
0.806766
 50
180.430738
 51
224.808992
  0
LINE
  8
APS_GEOMETRY
 10
0.453126
 11
0.453125
 20
1.265625
 21
1.125
  0
ARC
  8
APS_GEOMETRY
 10
0.453125
 20
0.999984
 40
0.125016
 50
81.596078
 51
90.0
  0
ARC
  8
APS_GEOMETRY
 10
0.452256
 20
0.994067
 40
0.130996
 50
73.388933
 51
81.598377
  0
ARC
  8
APS_GEOMETRY
 10
0.450506
 20
0.988243
 40
0.137078
 50
65.530839
 51
73.383977
  0
ARC
  8
APS_GEOMETRY
 10
0.443132
 20
0.972029
 40
0.15489
 50
58.145332
 51
65.532461
  0
ARC
  8
APS_GEOMETRY
 10
0.436842
 20
0.9619
 40
0.166813
 50
51.278517
 51
58.14621
  0
ARC
  8
APS_GEOMETRY
 10
0.418898
 20
0.939509
 40
0.195507
 50
44.936819
 51
51.280493
  0
ARC
  8
APS_GEOMETRY
 10
0.406981
 20
0.927625
 40
0.212337
 50
39.088561
 51
44.935464
  0
ARC
  8
APS_GEOMETRY
 10
0.378461
 20
0.904459
 40
0.24908
 50
33.690068
 51
39.088188
  0
ARC
  8
APS_GEOMETRY
 10
0.362071
 20
0.893533
 40
0.268778
 50
28.684017
 51
33.69005
  0
ARC
  8
APS_GEOMETRY
 10
0.327297
 20
0.874512
 40
0.308414
 50
24.009832
 51
28.683146
  0
ARC
  8
APS_GEOMETRY
 10
0.309512
 20
0.866582
 40
0.327887
 50
19.613691
 51
24.011218
  0
ARC
  8
APS_GEOMETRY
 10
0.275865
 20
0.854599
 40
0.363604
 50
15.436538
 51
19.612498
  0
ARC
  8
APS_GEOMETRY
 10
0.260747
 20
0.850419
 40
0.379289
 50
11.433103
 51
15.437391
  0
ARC
  8
APS_GEOMETRY
 10
0.236347
 20
0.8455
 40
0.40418
 50
7.551932
 51
11.430907
  0
ARC
  8
APS_GEOMETRY
 10
0.227667
 20
0.844321
 40
0.41294
 50
3.758616
 51
7.555809
  0
ARC
  8
APS_GEOMETRY
 10
0.218755
 20
0.843753
 40
0.42187
 50
359.999623
 51
3.756312
  0
LINE
  8
APS_GEOMETRY
 10
0.640625
 11
0.734375
 20
0.84375
 21
0.84375
  0
LINE
  8
APS_GEOMETRY
 10
0.734375
 11
0.734375
 20
0.84375
 21
0.40625
  0
LINE
  8
APS_GEOMETRY
 10
0.734375
 11
0.640625
 20
0.40625
 21
0.40625
  0
ARC
  8
APS_GEOMETRY
 10
0.218755
 20
0.40625
 40
0.42187
 50
356.243298
 51
0.0
  0
ARC
  8
APS_GEOMETRY
 10
0.227666
 20
0.405662
 40
0.41294
 50
352.44656
 51
356.243663
  0
ARC
  8
APS_GEOMETRY
 10
0.236352
 20
0.404526
 40
0.40418
 50
348.565288
 51
352.444348
  0
ARC
  8
APS_GEOMETRY
 10
0.260744
 20
0.399567
 40
0.379289
 50
344.564865
 51
348.569143
  0
ARC
  8
APS_GEOMETRY
 10
0.275867
 20
0.395406
 40
0.363604
 50
340.386638
 51
344.56261
  0
ARC
  8
APS_GEOMETRY
 10
0.30951
 20
0.383412
 40
0.327887
 50
335.989878
 51
340.387504
  0
ARC
  8
APS_GEOMETRY
 10
0.327301
 20
0.375495
 40
0.308414
 50
331.315448
 51
335.988548
  0
ARC
  8
APS_GEOMETRY
 10
0.362069
 20
0.356463
 40
0.268778
 50
326.31086
 51
331.317115
  0
ARC
  8
APS_GEOMETRY
 10
0.378461
 20
0.345541
 40
0.24908
 50
320.911711
 51
326.309704
  0
ARC
  8
APS_GEOMETRY
 10
0.40698
 20
0.322374
 40
0.212337
 50
315.064899
 51
320.911812
  0
ARC
  8
APS_GEOMETRY
 10
0.418895
 20
0.310488
 40
0.195507
 50
308.721104
 51
315.06452
  0
ARC
  8
APS_GEOMETRY
 10
0.436847
 20
0.288103
 40
0.166813
 50
301.851665
 51
308.719939
  0
ARC
  8
APS_GEOMETRY
 10
0.443135
 20
0.277973
 40
0.15489
 50
294.466492
 51
301.853251
  0
ARC
  8
APS_GEOMETRY
 10
0.450509
 20
0.261759
 40
0.137078
 50
286.614664
 51
294.467781
  0
ARC
  8
APS_GEOMETRY
 10
0.452245
 20
0.25593
 40
0.130996
 50
278.406601
 51
286.61618
  0
ARC
  8
APS_GEOMETRY
 10
0.45313
 20
0.250016
 40
0.125016
 50
269.997562
 51
278.401449
  0
LINE
  8
APS_GEOMETRY
 10
0.453125
 11
0.453125
 20
0.125
 21
0.0
  0
LINE
  8
APS_GEOMETRY
 10
0.453125
 11
0.3125
 20
0.0
 21
0.0
  0
LINE
  8
APS_GEOMETRY
 10
0.3125
 11
0.3125
 20
0.0
 21
0.25
  0
LINE
  8
APS_GEOMETRY
 10
0.3125
 11
0.0
 20
0.25
 21
0.25
  0
LINE
  8
APS_GEOMETRY
 10
0.0
 11
0.0
 20
0.25
 21
2.375
  0
LINE
  8
APS_GEOMETRY
 10
0.0
 11
0.1875
 20
2.375
 21
2.375
  0
ARC
  8
APS_GEOMETRY
 10
0.91357
 20
2.375
 40
0.72607
 50
180.0
 51
189.536252
  0
ARC
  8
APS_GEOMETRY
 10
0.335902
 20
2.277956
 40
0.140307
 50
189.536561
 51
225.429376
  0
ARC
  8
APS_GEOMETRY
 10
0.348439
 20
2.290673
 40
0.158165
 50
225.426876
 51
234.130149
  0
ARC
  8
APS_GEOMETRY
 10
2.25489
 20
4.927642
 40
3.41211
 50
234.133984
 51
234.889813
  0
ARC
  8
APS_GEOMETRY
 10
0.163156
 20
1.952544
 40
0.224724
 50
35.580363
 51
54.887791
  0
ARC
  8
APS_GEOMETRY
 10
0.219699
 20
1.992995
 40
0.155201
 50
11.539235
 51
35.580178
  0
ARC
  8
APS_GEOMETRY
 10
0.207191
 20
1.990439
 40
0.167967
 50
322.121814
 51
11.540178
  0
ARC
  8
APS_GEOMETRY
 10
0.21875
 20
1.981449
 40
0.153324
 50
270.000441
 51
322.121596
  0
LINE
  8
CONSTRUCTION
 10
0.152615
 11
0.10065
 20
-1.038482
 21
-1.166909
  0
LINE
  8
CONSTRUCTION
 10
0.10065
 11
0.20458
 20
-1.166909
 21
-1.166909
  0
LINE
  8
CONSTRUCTION
 10
0.20458
 11
0.152615
 20
-1.166909
 21
-1.038482
  0
LINE
  8
CONSTRUCTION
 10
0.152615
 11
0.559547
 20
-1.038482
 21
-1.03848
  0
LINE
  8
CONSTRUCTION
 10
0.559547
 11
0.507582
 20
-1.03848
 21
-1.166908
  0
LINE
  8
CONSTRUCTION
 10
0.507582
 11
0.611512
 20
-1.166908
 21
-1.166908
  0
LINE
  8
CONSTRUCTION
 10
0.611512
 11
0.559547
 20
-1.166908
 21
-1.03848
  0
LINE
  8
CONSTRUCTION
 10
0.559547
 11
0.966478
 20
-1.03848
 21
-1.03848
  0
LINE
  8
CONSTRUCTION
 10
0.966478
 11
0.914513
 20
-1.03848
 21
-1.166908
  0
LINE
  8
CONSTRUCTION
 10
0.914513
 11
1.018442
 20
-1.166908
 21
-1.166908
  0
LINE
  8
CONSTRUCTION
 10
1.018442
 11
0.966478
 20
-1.166908
 21
-1.03848
  0
LINE
  8
CONSTRUCTION
 10
0.966478
 11
1.373408
 20
-1.03848
 21
-1.03848
  0
LINE
  8
CONSTRUCTION
 10
1.373408
 11
1.321443
 20
-1.03848
 21
-1.166908
  0
LINE
  8
CONSTRUCTION
 10
1.321443
 11
1.425373
 20
-1.166908
 21
-1.166908
  0
LINE
  8
CONSTRUCTION
 10
1.425373
 11
1.373408
 20
-1.166908
 21
-1.03848
  0
LINE
  8
CONSTRUCTION
 10
1.373408
 11
1.780281
 20
-1.03848
 21
-1.038482
  0
LINE
  8
CONSTRUCTION
 10
1.780281
 11
1.728316
 20
-1.038482
 21
-1.166909
  0
LINE
  8
CONSTRUCTION
 10
1.728316
 11
1.832246
 20
-1.166909
 21
-1.166909
  0
LINE
  8
CONSTRUCTION
 10
1.832246
 11
1.780281
 20
-1.166909
 21
-1.038482
  0
LINE
  8
CONSTRUCTION
 10
0.0
 11
4.0
 20
-1.561751
 21
-1.561751
  0
TEXT
  8
TEXT
 10
0.1
 20
-1.8
 30
0.0
 40
0.1
 50
0.0
  1
Phone: (406) 248-5010    Website: www.dovetailmt.com
  0
TEXT
  8
TEXT
 10
1.092458
 20
-1.640461
 30
0.0
 40
0.07
 50
0.0
  1
Established 1979
  0
TEXT
  8
TEXT
 10
2.276036
 20
-1.551751
 30
0.0
 40
0.099
 50
0.0
  1
& MILLWORK INC.
  0
TEXT
  8
TEXT
 10
0.10065
 20
-1.405784
 30
0.0
 40
0.224
 50
0.0
  1
DOVETAIL DESIGNS
  0
TEXT
  8
TEXT
 10
0.0
 20
-0.25
 30
0.0
 40
0.15625
 50
0.0
  1
BC302
  0
TEXT
  8
TEXT
 10
0.0
 20
-0.5
 30
0.0
 40
0.1
 50
0.0
  1
3/4"x2-3/8"
  0
ENDSEC
  0
EOF
