  0
SECTION
  2
ENTITIES
  0
ARC
  8
APS_GEOMETRY
 10
35.820312
 20
8.375
 40
35.195313
 50
180.0
 51
186.833176
  0
ARC
  8
APS_GEOMETRY
 10
-34.070312
 20
-0.000017
 40
35.195313
 50
0.000027
 51
6.833204
  0
LINE
  8
APS_GEOMETRY
 10
1.125001
 11
0.0
 20
0.0
 21
0.0
  0
LINE
  8
APS_GEOMETRY
 10
0.0
 11
0.0
 20
0.0
 21
0.875029
  0
LINE
  8
APS_GEOMETRY
 10
0.0
 11
0.125093
 20
0.875029
 21
0.875029
  0
LINE
  8
APS_GEOMETRY
 10
0.125093
 11
0.125093
 20
0.875029
 21
1.0
  0
LINE
  8
APS_GEOMETRY
 10
0.125093
 11
0.0
 20
1.0
 21
1.0
  0
LINE
  8
APS_GEOMETRY
 10
0.0
 11
0.0
 20
1.0
 21
1.875029
  0
LINE
  8
APS_GEOMETRY
 10
0.0
 11
0.125093
 20
1.875029
 21
1.875029
  0
LINE
  8
APS_GEOMETRY
 10
0.125093
 11
0.125093
 20
1.875029
 21
2.0
  0
LINE
  8
APS_GEOMETRY
 10
0.125093
 11
0.0
 20
2.0
 21
2.0
  0
LINE
  8
APS_GEOMETRY
 10
0.0
 11
0.0
 20
2.0
 21
2.875029
  0
LINE
  8
APS_GEOMETRY
 10
0.0
 11
0.125093
 20
2.875029
 21
2.875029
  0
LINE
  8
APS_GEOMETRY
 10
0.125093
 11
0.125093
 20
2.875029
 21
3.0
  0
LINE
  8
APS_GEOMETRY
 10
0.125093
 11
0.0
 20
3.0
 21
3.0
  0
LINE
  8
APS_GEOMETRY
 10
0.0
 11
0.0
 20
3.0
 21
3.875029
  0
LINE
  8
APS_GEOMETRY
 10
0.0
 11
0.125093
 20
3.875029
 21
3.875029
  0
LINE
  8
APS_GEOMETRY
 10
0.125093
 11
0.125093
 20
3.875029
 21
4.0
  0
LINE
  8
APS_GEOMETRY
 10
0.125093
 11
0.0
 20
4.0
 21
4.0
  0
LINE
  8
APS_GEOMETRY
 10
0.0
 11
0.0
 20
4.0
 21
4.875029
  0
LINE
  8
APS_GEOMETRY
 10
0.0
 11
0.125047
 20
4.875029
 21
4.875029
  0
LINE
  8
APS_GEOMETRY
 10
0.125047
 11
0.125047
 20
4.875029
 21
5.0
  0
LINE
  8
APS_GEOMETRY
 10
0.125047
 11
0.0
 20
5.0
 21
5.0
  0
LINE
  8
APS_GEOMETRY
 10
0.0
 11
0.0
 20
5.0
 21
5.875029
  0
LINE
  8
APS_GEOMETRY
 10
0.0
 11
0.125047
 20
5.875029
 21
5.875029
  0
LINE
  8
APS_GEOMETRY
 10
0.125047
 11
0.125047
 20
5.875029
 21
6.0
  0
LINE
  8
APS_GEOMETRY
 10
0.125047
 11
0.0
 20
6.0
 21
6.0
  0
LINE
  8
APS_GEOMETRY
 10
0.0
 11
0.0
 20
6.0
 21
6.875029
  0
LINE
  8
APS_GEOMETRY
 10
0.0
 11
0.125047
 20
6.875029
 21
6.875029
  0
LINE
  8
APS_GEOMETRY
 10
0.125047
 11
0.125047
 20
6.875029
 21
7.0
  0
LINE
  8
APS_GEOMETRY
 10
0.125047
 11
0.0
 20
7.0
 21
7.0
  0
LINE
  8
APS_GEOMETRY
 10
0.0
 11
0.0
 20
7.0
 21
7.875029
  0
LINE
  8
APS_GEOMETRY
 10
0.0
 11
0.125047
 20
7.875029
 21
7.875029
  0
LINE
  8
APS_GEOMETRY
 10
0.125047
 11
0.125047
 20
7.875029
 21
8.0
  0
LINE
  8
APS_GEOMETRY
 10
0.125047
 11
0.0
 20
8.0
 21
8.0
  0
LINE
  8
APS_GEOMETRY
 10
0.0
 11
0.0
 20
8.0
 21
8.875029
  0
LINE
  8
APS_GEOMETRY
 10
0.0
 11
0.125
 20
8.875029
 21
8.875029
  0
LINE
  8
APS_GEOMETRY
 10
0.125
 11
0.125
 20
8.875029
 21
9.0
  0
LINE
  8
APS_GEOMETRY
 10
0.125
 11
0.0
 20
9.0
 21
9.0
  0
LINE
  8
APS_GEOMETRY
 10
0.0
 11
0.0
 20
9.0
 21
10.0
  0
LINE
  8
APS_GEOMETRY
 10
0.0
 11
0.625
 20
10.0
 21
10.0
  0
LINE
  8
APS_GEOMETRY
 10
0.625
 11
0.625
 20
10.0
 21
8.75
  0
LINE
  8
APS_GEOMETRY
 10
0.625
 11
0.375
 20
8.75
 21
8.75
  0
LINE
  8
APS_GEOMETRY
 10
0.375
 11
0.375
 20
8.75
 21
8.375
  0
LINE
  8
APS_GEOMETRY
 10
0.375
 11
0.624999
 20
8.375
 21
8.375
  0
LINE
  8
CONSTRUCTION
 10
0.152615
 11
0.10065
 20
-1.038482
 21
-1.166909
  0
LINE
  8
CONSTRUCTION
 10
0.10065
 11
0.20458
 20
-1.166909
 21
-1.166909
  0
LINE
  8
CONSTRUCTION
 10
0.20458
 11
0.152615
 20
-1.166909
 21
-1.038482
  0
LINE
  8
CONSTRUCTION
 10
0.152615
 11
0.559547
 20
-1.038482
 21
-1.03848
  0
LINE
  8
CONSTRUCTION
 10
0.559547
 11
0.507582
 20
-1.03848
 21
-1.166908
  0
LINE
  8
CONSTRUCTION
 10
0.507582
 11
0.611512
 20
-1.166908
 21
-1.166908
  0
LINE
  8
CONSTRUCTION
 10
0.611512
 11
0.559547
 20
-1.166908
 21
-1.03848
  0
LINE
  8
CONSTRUCTION
 10
0.559547
 11
0.966478
 20
-1.03848
 21
-1.03848
  0
LINE
  8
CONSTRUCTION
 10
0.966478
 11
0.914513
 20
-1.03848
 21
-1.166908
  0
LINE
  8
CONSTRUCTION
 10
0.914513
 11
1.018442
 20
-1.166908
 21
-1.166908
  0
LINE
  8
CONSTRUCTION
 10
1.018442
 11
0.966478
 20
-1.166908
 21
-1.03848
  0
LINE
  8
CONSTRUCTION
 10
0.966478
 11
1.373408
 20
-1.03848
 21
-1.03848
  0
LINE
  8
CONSTRUCTION
 10
1.373408
 11
1.321443
 20
-1.03848
 21
-1.166908
  0
LINE
  8
CONSTRUCTION
 10
1.321443
 11
1.425373
 20
-1.166908
 21
-1.166908
  0
LINE
  8
CONSTRUCTION
 10
1.425373
 11
1.373408
 20
-1.166908
 21
-1.03848
  0
LINE
  8
CONSTRUCTION
 10
1.373408
 11
1.780281
 20
-1.03848
 21
-1.038482
  0
LINE
  8
CONSTRUCTION
 10
1.780281
 11
1.728316
 20
-1.038482
 21
-1.166909
  0
LINE
  8
CONSTRUCTION
 10
1.728316
 11
1.832246
 20
-1.166909
 21
-1.166909
  0
LINE
  8
CONSTRUCTION
 10
1.832246
 11
1.780281
 20
-1.166909
 21
-1.038482
  0
LINE
  8
CONSTRUCTION
 10
0.0
 11
4.0
 20
-1.561751
 21
-1.561751
  0
TEXT
  8
TEXT
 10
0.1
 20
-1.8
 30
0.0
 40
0.1
 50
0.0
  1
Phone: (406) 248-5010    Website: www.dovetailmt.com
  0
TEXT
  8
TEXT
 10
1.092458
 20
-1.640461
 30
0.0
 40
0.07
 50
0.0
  1
Established 1979
  0
TEXT
  8
TEXT
 10
2.276036
 20
-1.551751
 30
0.0
 40
0.099
 50
0.0
  1
& MILLWORK INC.
  0
TEXT
  8
TEXT
 10
0.10065
 20
-1.405784
 30
0.0
 40
0.224
 50
0.0
  1
DOVETAIL DESIGNS
  0
TEXT
  8
TEXT
 10
0.0
 20
-0.25
 30
0.0
 40
0.15625
 50
0.0
  1
B185
  0
TEXT
  8
TEXT
 10
0.0
 20
-0.5
 30
0.0
 40
0.1
 50
0.0
  1
1-1/8"x10"
  0
ENDSEC
  0
EOF
