  0
SECTION
  2
ENTITIES
  0
ARC
  8
APS_GEOMETRY
 10
-0.03125
 20
5.911612
 40
0.09375
 50
359.999601
 51
70.528779
  0
LINE
  8
APS_GEOMETRY
 10
0.0
 11
0.0
 20
6.0
 21
8.5
  0
LINE
  8
APS_GEOMETRY
 10
0.0
 11
0.359074
 20
8.5
 21
8.5
  0
LINE
  8
APS_GEOMETRY
 10
0.359074
 11
0.360067
 20
8.5
 21
8.414598
  0
LINE
  8
APS_GEOMETRY
 10
0.360067
 11
0.365989
 20
8.414598
 21
8.293774
  0
LINE
  8
APS_GEOMETRY
 10
0.365989
 11
0.382692
 20
8.293774
 21
8.143923
  0
LINE
  8
APS_GEOMETRY
 10
0.382692
 11
0.404107
 20
8.143923
 21
8.028951
  0
LINE
  8
APS_GEOMETRY
 10
0.404107
 11
0.432981
 20
8.028951
 21
7.9236
  0
LINE
  8
APS_GEOMETRY
 10
0.432981
 11
0.466643
 20
7.9236
 21
7.838963
  0
LINE
  8
APS_GEOMETRY
 10
0.466643
 11
0.478781
 20
7.838963
 21
7.815458
  0
LINE
  8
APS_GEOMETRY
 10
0.478781
 11
0.492874
 20
7.815458
 21
7.79198
  0
LINE
  8
APS_GEOMETRY
 10
0.492874
 11
0.508828
 20
7.79198
 21
7.769858
  0
LINE
  8
APS_GEOMETRY
 10
0.508828
 11
0.524885
 20
7.769858
 21
7.751949
  0
LINE
  8
APS_GEOMETRY
 10
0.524885
 11
0.539304
 20
7.751949
 21
7.739325
  0
LINE
  8
APS_GEOMETRY
 10
0.539304
 11
0.556031
 20
7.739325
 21
7.728554
  0
LINE
  8
APS_GEOMETRY
 10
0.556031
 11
0.567327
 20
7.728554
 21
7.723545
  0
LINE
  8
APS_GEOMETRY
 10
0.567327
 11
0.579325
 20
7.723545
 21
7.720175
  0
LINE
  8
APS_GEOMETRY
 10
0.579325
 11
0.59375
 20
7.720175
 21
7.71875
  0
LINE
  8
APS_GEOMETRY
 10
0.59375
 11
0.59375
 20
7.71875
 21
7.562499
  0
ARC
  8
APS_GEOMETRY
 10
0.085784
 20
7.134436
 40
0.66428
 50
313.957303
 51
40.120845
  0
ARC
  8
APS_GEOMETRY
 10
0.912129
 20
6.277454
 40
0.526209
 50
133.957326
 51
245.704956
  0
ARC
  8
APS_GEOMETRY
 10
0.625
 20
5.65847
 40
0.15625
 50
315.0
 51
63.126845
  0
LINE
  8
APS_GEOMETRY
 10
0.735485
 11
0.625
 20
5.547985
 21
5.4375
  0
LINE
  8
APS_GEOMETRY
 10
0.625
 11
0.8125
 20
5.4375
 21
5.25
  0
LINE
  8
APS_GEOMETRY
 10
0.8125
 11
0.8125
 20
5.25
 21
0.0
  0
LINE
  8
APS_GEOMETRY
 10
0.8125
 11
0.0
 20
0.0
 21
0.0
  0
LINE
  8
APS_GEOMETRY
 10
0.0
 11
0.0
 20
0.0
 21
1.25
  0
ARC
  8
APS_GEOMETRY
 10
-0.03125
 20
1.338388
 40
0.09375
 50
289.471221
 51
359.999788
  0
LINE
  8
APS_GEOMETRY
 10
0.0625
 11
0.0625
 20
1.338388
 21
5.911611
  0
LINE
  8
CONSTRUCTION
 10
0.152615
 11
0.10065
 20
-1.038482
 21
-1.166909
  0
LINE
  8
CONSTRUCTION
 10
0.10065
 11
0.20458
 20
-1.166909
 21
-1.166909
  0
LINE
  8
CONSTRUCTION
 10
0.20458
 11
0.152615
 20
-1.166909
 21
-1.038482
  0
LINE
  8
CONSTRUCTION
 10
0.152615
 11
0.559547
 20
-1.038482
 21
-1.03848
  0
LINE
  8
CONSTRUCTION
 10
0.559547
 11
0.507582
 20
-1.03848
 21
-1.166908
  0
LINE
  8
CONSTRUCTION
 10
0.507582
 11
0.611512
 20
-1.166908
 21
-1.166908
  0
LINE
  8
CONSTRUCTION
 10
0.611512
 11
0.559547
 20
-1.166908
 21
-1.03848
  0
LINE
  8
CONSTRUCTION
 10
0.559547
 11
0.966478
 20
-1.03848
 21
-1.03848
  0
LINE
  8
CONSTRUCTION
 10
0.966478
 11
0.914513
 20
-1.03848
 21
-1.166908
  0
LINE
  8
CONSTRUCTION
 10
0.914513
 11
1.018442
 20
-1.166908
 21
-1.166908
  0
LINE
  8
CONSTRUCTION
 10
1.018442
 11
0.966478
 20
-1.166908
 21
-1.03848
  0
LINE
  8
CONSTRUCTION
 10
0.966478
 11
1.373408
 20
-1.03848
 21
-1.03848
  0
LINE
  8
CONSTRUCTION
 10
1.373408
 11
1.321443
 20
-1.03848
 21
-1.166908
  0
LINE
  8
CONSTRUCTION
 10
1.321443
 11
1.425373
 20
-1.166908
 21
-1.166908
  0
LINE
  8
CONSTRUCTION
 10
1.425373
 11
1.373408
 20
-1.166908
 21
-1.03848
  0
LINE
  8
CONSTRUCTION
 10
1.373408
 11
1.780281
 20
-1.03848
 21
-1.038482
  0
LINE
  8
CONSTRUCTION
 10
1.780281
 11
1.728316
 20
-1.038482
 21
-1.166909
  0
LINE
  8
CONSTRUCTION
 10
1.728316
 11
1.832246
 20
-1.166909
 21
-1.166909
  0
LINE
  8
CONSTRUCTION
 10
1.832246
 11
1.780281
 20
-1.166909
 21
-1.038482
  0
LINE
  8
CONSTRUCTION
 10
0.0
 11
4.0
 20
-1.561751
 21
-1.561751
  0
TEXT
  8
TEXT
 10
0.10065
 20
-1.405784
 30
0.0
 40
0.224
 50
0.0
  1
DOVETAIL DESIGNS
  0
TEXT
  8
TEXT
 10
2.276036
 20
-1.551751
 30
0.0
 40
0.099
 50
0.0
  1
& MILLWORK INC.
  0
TEXT
  8
TEXT
 10
1.092458
 20
-1.640461
 30
0.0
 40
0.07
 50
0.0
  1
Established 1979
  0
TEXT
  8
TEXT
 10
0.1
 20
-1.8
 30
0.0
 40
0.1
 50
0.0
  1
Phone: (406) 248-5010    Website: www.dovetailmt.com
  0
TEXT
  8
TEXT
 10
0.0
 20
-0.5
 30
0.0
 40
0.1
 50
0.0
  1
13/16"x8-1/2"
  0
TEXT
  8
TEXT
 10
0.0
 20
-0.25
 30
0.0
 40
0.15625
 50
0.0
  1
B180
  0
ENDSEC
  0
EOF
