  0
SECTION
  2
ENTITIES
  0
ARC
  8
APS_GEOMETRY
 10
0.015625
 20
4.862217
 40
0.671875
 50
314.986537
 51
54.451256
  0
LINE
  8
APS_GEOMETRY
 10
0.40625
 11
0.40625
 20
5.408869
 21
5.768244
  0
ARC
  8
APS_GEOMETRY
 10
0.5
 20
6.0
 40
0.25
 50
180.000046
 51
247.975687
  0
LINE
  8
APS_GEOMETRY
 10
0.25
 11
0.0
 20
6.0
 21
6.0
  0
LINE
  8
APS_GEOMETRY
 10
0.0
 11
0.0
 20
6.0
 21
0.0
  0
LINE
  8
APS_GEOMETRY
 10
0.0
 11
0.75
 20
0.0
 21
0.0
  0
LINE
  8
APS_GEOMETRY
 10
0.75
 11
0.75
 20
0.0
 21
3.174494
  0
ARC
  8
APS_GEOMETRY
 10
0.125435
 20
3.17291
 40
0.624567
 50
0.145318
 51
6.942406
  0
ARC
  8
APS_GEOMETRY
 10
0.40588
 20
3.207054
 40
0.342051
 50
6.943126
 51
15.540724
  0
ARC
  8
APS_GEOMETRY
 10
0.473475
 20
3.225861
 40
0.271888
 50
15.538702
 51
25.441313
  0
ARC
  8
APS_GEOMETRY
 10
0.511976
 20
3.244172
 40
0.229255
 50
25.442408
 51
35.116673
  0
ARC
  8
APS_GEOMETRY
 10
0.459672
 20
3.207383
 40
0.293202
 50
35.117704
 51
45.849115
  0
ARC
  8
APS_GEOMETRY
 10
-0.70759
 20
2.005072
 40
1.968926
 50
45.847664
 51
48.23293
  0
ARC
  8
APS_GEOMETRY
 10
2.658436
 20
5.774165
 40
3.084409
 50
226.835893
 51
228.233417
  0
ARC
  8
APS_GEOMETRY
 10
0.862648
 20
3.859442
 40
0.459334
 50
221.047469
 51
226.835833
  0
ARC
  8
APS_GEOMETRY
 10
0.840464
 20
3.840127
 40
0.42992
 50
213.61899
 51
221.047681
  0
ARC
  8
APS_GEOMETRY
 10
0.786383
 20
3.804166
 40
0.364974
 50
205.758026
 51
213.618551
  0
ARC
  8
APS_GEOMETRY
 10
0.75985
 20
3.791367
 40
0.335515
 50
190.358889
 51
205.758545
  0
ARC
  8
APS_GEOMETRY
 10
0.955511
 20
3.827131
 40
0.534418
 50
180.30098
 51
190.358695
  0
ARC
  8
APS_GEOMETRY
 10
0.961136
 20
3.827159
 40
0.540043
 50
170.922028
 51
180.30081
  0
ARC
  8
APS_GEOMETRY
 10
0.950034
 20
3.828932
 40
0.5288
 50
160.758823
 51
170.921996
  0
ARC
  8
APS_GEOMETRY
 10
1.10168
 20
3.776004
 40
0.689417
 50
156.575277
 51
160.75905
  0
ARC
  8
APS_GEOMETRY
 10
1.552599
 20
3.580636
 40
1.180841
 50
153.266912
 51
156.574979
  0
ARC
  8
APS_GEOMETRY
 10
2.022745
 20
3.343846
 40
1.70725
 50
150.91286
 51
153.2672
  0
ARC
  8
APS_GEOMETRY
 10
5.226793
 20
1.561389
 40
5.37373
 50
149.560555
 51
150.912403
  0
LINE
  8
APS_GEOMETRY
 10
0.593751
 11
0.490601
 20
4.283868
 21
4.387018
  0
LINE
  8
CONSTRUCTION
 10
0.152615
 11
0.10065
 20
-1.038482
 21
-1.166909
  0
LINE
  8
CONSTRUCTION
 10
0.10065
 11
0.20458
 20
-1.166909
 21
-1.166909
  0
LINE
  8
CONSTRUCTION
 10
0.20458
 11
0.152615
 20
-1.166909
 21
-1.038482
  0
LINE
  8
CONSTRUCTION
 10
0.152615
 11
0.559547
 20
-1.038482
 21
-1.03848
  0
LINE
  8
CONSTRUCTION
 10
0.559547
 11
0.507582
 20
-1.03848
 21
-1.166908
  0
LINE
  8
CONSTRUCTION
 10
0.507582
 11
0.611512
 20
-1.166908
 21
-1.166908
  0
LINE
  8
CONSTRUCTION
 10
0.611512
 11
0.559547
 20
-1.166908
 21
-1.03848
  0
LINE
  8
CONSTRUCTION
 10
0.559547
 11
0.966478
 20
-1.03848
 21
-1.03848
  0
LINE
  8
CONSTRUCTION
 10
0.966478
 11
0.914513
 20
-1.03848
 21
-1.166908
  0
LINE
  8
CONSTRUCTION
 10
0.914513
 11
1.018442
 20
-1.166908
 21
-1.166908
  0
LINE
  8
CONSTRUCTION
 10
1.018442
 11
0.966478
 20
-1.166908
 21
-1.03848
  0
LINE
  8
CONSTRUCTION
 10
0.966478
 11
1.373408
 20
-1.03848
 21
-1.03848
  0
LINE
  8
CONSTRUCTION
 10
1.373408
 11
1.321443
 20
-1.03848
 21
-1.166908
  0
LINE
  8
CONSTRUCTION
 10
1.321443
 11
1.425373
 20
-1.166908
 21
-1.166908
  0
LINE
  8
CONSTRUCTION
 10
1.425373
 11
1.373408
 20
-1.166908
 21
-1.03848
  0
LINE
  8
CONSTRUCTION
 10
1.373408
 11
1.780281
 20
-1.03848
 21
-1.038482
  0
LINE
  8
CONSTRUCTION
 10
1.780281
 11
1.728316
 20
-1.038482
 21
-1.166909
  0
LINE
  8
CONSTRUCTION
 10
1.728316
 11
1.832246
 20
-1.166909
 21
-1.166909
  0
LINE
  8
CONSTRUCTION
 10
1.832246
 11
1.780281
 20
-1.166909
 21
-1.038482
  0
LINE
  8
CONSTRUCTION
 10
0.0
 11
4.0
 20
-1.561751
 21
-1.561751
  0
TEXT
  8
TEXT
 10
0.10065
 20
-1.405784
 30
0.0
 40
0.224
 50
0.0
  1
DOVETAIL DESIGNS
  0
TEXT
  8
TEXT
 10
2.276036
 20
-1.551751
 30
0.0
 40
0.099
 50
0.0
  1
& MILLWORK INC.
  0
TEXT
  8
TEXT
 10
1.092458
 20
-1.640461
 30
0.0
 40
0.07
 50
0.0
  1
Established 1979
  0
TEXT
  8
TEXT
 10
0.1
 20
-1.8
 30
0.0
 40
0.1
 50
0.0
  1
Phone: (406) 248-5010    Website: www.dovetailmt.com
  0
TEXT
  8
TEXT
 10
0.0
 20
-0.5
 30
0.0
 40
0.1
 50
0.0
  1
3/4"x6"
  0
TEXT
  8
TEXT
 10
0.0
 20
-0.25
 30
0.0
 40
0.15625
 50
0.0
  1
B171
  0
ENDSEC
  0
EOF
