  0
SECTION
  2
ENTITIES
  0
ARC
  8
APS_GEOMETRY
 10
0.793985
 20
6.326726
 40
0.206466
 50
236.34394
 51
257.699472
  0
LINE
  8
APS_GEOMETRY
 10
0.75
 11
0.75
 20
6.125
 21
0.0
  0
LINE
  8
APS_GEOMETRY
 10
0.75
 11
0.0
 20
0.0
 21
0.0
  0
LINE
  8
APS_GEOMETRY
 10
0.0
 11
0.0
 20
0.0
 21
8.0
  0
ARC
  8
APS_GEOMETRY
 10
-0.005136
 20
7.519745
 40
0.480282
 50
73.118993
 51
89.387255
  0
ARC
  8
APS_GEOMETRY
 10
0.03441
 20
7.650072
 40
0.344088
 50
56.922917
 51
73.118592
  0
ARC
  8
APS_GEOMETRY
 10
0.002922
 20
7.601721
 40
0.401788
 50
45.089211
 51
56.923413
  0
ARC
  8
APS_GEOMETRY
 10
0.055321
 20
7.654288
 40
0.327566
 50
33.381254
 51
45.088561
  0
ARC
  8
APS_GEOMETRY
 10
0.099603
 20
7.683465
 40
0.274536
 50
21.478732
 51
33.381397
  0
ARC
  8
APS_GEOMETRY
 10
-0.179106
 20
7.573798
 40
0.574045
 50
14.120002
 51
21.478742
  0
ARC
  8
APS_GEOMETRY
 10
-0.562207
 20
7.477419
 40
0.969083
 50
9.913152
 51
14.1205
  0
ARC
  8
APS_GEOMETRY
 10
-2.38899
 20
7.158171
 40
2.823552
 50
7.559222
 51
9.912976
  0
ARC
  8
APS_GEOMETRY
 10
-4.902176
 20
6.824706
 40
5.358764
 50
6.438489
 51
7.558738
  0
ARC
  8
APS_GEOMETRY
 10
-24.48885
 20
4.614226
 40
25.069777
 50
6.035014
 51
6.438849
  0
ARC
  8
APS_GEOMETRY
 10
478.318379
 20
57.771151
 40
480.539527
 50
186.034904
 51
186.05788
  0
ARC
  8
APS_GEOMETRY
 10
10.936155
 20
8.169928
 40
10.532692
 50
186.058109
 51
186.535478
  0
ARC
  8
APS_GEOMETRY
 10
8.994886
 20
7.947494
 40
8.578721
 50
186.535235
 51
187.268204
  0
ARC
  8
APS_GEOMETRY
 10
6.572913
 20
7.638668
 40
6.137138
 50
187.268855
 51
188.090287
  0
ARC
  8
APS_GEOMETRY
 10
7.279381
 20
7.739003
 40
6.850696
 50
188.089554
 51
188.749948
  0
ARC
  8
APS_GEOMETRY
 10
17.838951
 20
9.364366
 40
17.534624
 50
188.750271
 51
189.10232
  0
ARC
  8
APS_GEOMETRY
 10
183.452135
 20
35.89742
 40
185.259785
 50
189.102088
 51
189.155892
  0
ARC
  8
APS_GEOMETRY
 10
1.452974
 20
6.56375
 40
0.911857
 50
189.155627
 51
194.521852
  0
ARC
  8
APS_GEOMETRY
 10
1.08867
 20
6.469395
 40
0.535532
 50
194.522747
 51
203.053169
  0
ARC
  8
APS_GEOMETRY
 10
0.84548
 20
6.365897
 40
0.271234
 50
203.052362
 51
216.897023
  0
ARC
  8
APS_GEOMETRY
 10
0.794669
 20
6.327749
 40
0.207696
 50
216.89657
 51
236.3433
  0
LINE
  8
CONSTRUCTION
 10
0.152615
 11
0.10065
 20
-1.038482
 21
-1.166909
  0
LINE
  8
CONSTRUCTION
 10
0.10065
 11
0.20458
 20
-1.166909
 21
-1.166909
  0
LINE
  8
CONSTRUCTION
 10
0.20458
 11
0.152615
 20
-1.166909
 21
-1.038482
  0
LINE
  8
CONSTRUCTION
 10
0.152615
 11
0.559547
 20
-1.038482
 21
-1.03848
  0
LINE
  8
CONSTRUCTION
 10
0.559547
 11
0.507582
 20
-1.03848
 21
-1.166908
  0
LINE
  8
CONSTRUCTION
 10
0.507582
 11
0.611512
 20
-1.166908
 21
-1.166908
  0
LINE
  8
CONSTRUCTION
 10
0.611512
 11
0.559547
 20
-1.166908
 21
-1.03848
  0
LINE
  8
CONSTRUCTION
 10
0.559547
 11
0.966478
 20
-1.03848
 21
-1.03848
  0
LINE
  8
CONSTRUCTION
 10
0.966478
 11
0.914513
 20
-1.03848
 21
-1.166908
  0
LINE
  8
CONSTRUCTION
 10
0.914513
 11
1.018442
 20
-1.166908
 21
-1.166908
  0
LINE
  8
CONSTRUCTION
 10
1.018442
 11
0.966478
 20
-1.166908
 21
-1.03848
  0
LINE
  8
CONSTRUCTION
 10
0.966478
 11
1.373408
 20
-1.03848
 21
-1.03848
  0
LINE
  8
CONSTRUCTION
 10
1.373408
 11
1.321443
 20
-1.03848
 21
-1.166908
  0
LINE
  8
CONSTRUCTION
 10
1.321443
 11
1.425373
 20
-1.166908
 21
-1.166908
  0
LINE
  8
CONSTRUCTION
 10
1.425373
 11
1.373408
 20
-1.166908
 21
-1.03848
  0
LINE
  8
CONSTRUCTION
 10
1.373408
 11
1.780281
 20
-1.03848
 21
-1.038482
  0
LINE
  8
CONSTRUCTION
 10
1.780281
 11
1.728316
 20
-1.038482
 21
-1.166909
  0
LINE
  8
CONSTRUCTION
 10
1.728316
 11
1.832246
 20
-1.166909
 21
-1.166909
  0
LINE
  8
CONSTRUCTION
 10
1.832246
 11
1.780281
 20
-1.166909
 21
-1.038482
  0
LINE
  8
CONSTRUCTION
 10
0.0
 11
4.0
 20
-1.561751
 21
-1.561751
  0
TEXT
  8
TEXT
 10
0.10065
 20
-1.405784
 30
0.0
 40
0.224
 50
0.0
  1
DOVETAIL DESIGNS
  0
TEXT
  8
TEXT
 10
2.276036
 20
-1.551751
 30
0.0
 40
0.099
 50
0.0
  1
& MILLWORK INC.
  0
TEXT
  8
TEXT
 10
1.092458
 20
-1.640461
 30
0.0
 40
0.07
 50
0.0
  1
Established 1979
  0
TEXT
  8
TEXT
 10
0.1
 20
-1.8
 30
0.0
 40
0.1
 50
0.0
  1
Phone: (406) 248-5010    Website: www.dovetailmt.com
  0
TEXT
  8
TEXT
 10
0.0
 20
-0.5
 30
0.0
 40
0.1
 50
0.0
  1
3/4"x8"
  0
TEXT
  8
TEXT
 10
0.0
 20
-0.25
 30
0.0
 40
0.15625
 50
0.0
  1
B169
  0
ENDSEC
  0
EOF
