  0
SECTION
  2
ENTITIES
  0
ARC
  8
APS_GEOMETRY
 10
-0.784535
 20
5.002897
 40
1.161066
 50
2.942543
 51
8.652171
  0
ARC
  8
APS_GEOMETRY
 10
-0.160207
 20
5.097899
 40
0.529551
 50
8.652213
 51
15.924178
  0
ARC
  8
APS_GEOMETRY
 10
-0.054302
 20
5.128117
 40
0.41942
 50
15.923912
 51
25.756937
  0
ARC
  8
APS_GEOMETRY
 10
0.059549
 20
5.183044
 40
0.293011
 50
25.757901
 51
39.328208
  0
ARC
  8
APS_GEOMETRY
 10
0.134429
 20
5.244398
 40
0.196206
 50
39.327235
 51
53.942166
  0
ARC
  8
APS_GEOMETRY
 10
0.08101
 20
5.171026
 40
0.286964
 50
53.942485
 51
68.21696
  0
LINE
  8
APS_GEOMETRY
 10
0.1875
 11
0.1875
 20
5.4375
 21
5.75
  0
LINE
  8
APS_GEOMETRY
 10
0.1875
 11
0.0
 20
5.75
 21
5.75
  0
LINE
  8
APS_GEOMETRY
 10
0.0
 11
0.0
 20
5.75
 21
0.0
  0
LINE
  8
APS_GEOMETRY
 10
0.0
 11
0.5
 20
0.0
 21
0.0
  0
LINE
  8
APS_GEOMETRY
 10
0.5
 11
0.5
 20
0.0
 21
2.75
  0
LINE
  8
APS_GEOMETRY
 10
0.5
 11
0.4375
 20
2.75
 21
2.75
  0
LINE
  8
APS_GEOMETRY
 10
0.4375
 11
0.375
 20
2.75
 21
5.0625
  0
LINE
  8
CONSTRUCTION
 10
0.152615
 11
0.10065
 20
-1.038482
 21
-1.166909
  0
LINE
  8
CONSTRUCTION
 10
0.10065
 11
0.20458
 20
-1.166909
 21
-1.166909
  0
LINE
  8
CONSTRUCTION
 10
0.20458
 11
0.152615
 20
-1.166909
 21
-1.038482
  0
LINE
  8
CONSTRUCTION
 10
0.152615
 11
0.559547
 20
-1.038482
 21
-1.03848
  0
LINE
  8
CONSTRUCTION
 10
0.559547
 11
0.507582
 20
-1.03848
 21
-1.166908
  0
LINE
  8
CONSTRUCTION
 10
0.507582
 11
0.611512
 20
-1.166908
 21
-1.166908
  0
LINE
  8
CONSTRUCTION
 10
0.611512
 11
0.559547
 20
-1.166908
 21
-1.03848
  0
LINE
  8
CONSTRUCTION
 10
0.559547
 11
0.966478
 20
-1.03848
 21
-1.03848
  0
LINE
  8
CONSTRUCTION
 10
0.966478
 11
0.914513
 20
-1.03848
 21
-1.166908
  0
LINE
  8
CONSTRUCTION
 10
0.914513
 11
1.018442
 20
-1.166908
 21
-1.166908
  0
LINE
  8
CONSTRUCTION
 10
1.018442
 11
0.966478
 20
-1.166908
 21
-1.03848
  0
LINE
  8
CONSTRUCTION
 10
0.966478
 11
1.373408
 20
-1.03848
 21
-1.03848
  0
LINE
  8
CONSTRUCTION
 10
1.373408
 11
1.321443
 20
-1.03848
 21
-1.166908
  0
LINE
  8
CONSTRUCTION
 10
1.321443
 11
1.425373
 20
-1.166908
 21
-1.166908
  0
LINE
  8
CONSTRUCTION
 10
1.425373
 11
1.373408
 20
-1.166908
 21
-1.03848
  0
LINE
  8
CONSTRUCTION
 10
1.373408
 11
1.780281
 20
-1.03848
 21
-1.038482
  0
LINE
  8
CONSTRUCTION
 10
1.780281
 11
1.728316
 20
-1.038482
 21
-1.166909
  0
LINE
  8
CONSTRUCTION
 10
1.728316
 11
1.832246
 20
-1.166909
 21
-1.166909
  0
LINE
  8
CONSTRUCTION
 10
1.832246
 11
1.780281
 20
-1.166909
 21
-1.038482
  0
LINE
  8
CONSTRUCTION
 10
0.0
 11
4.0
 20
-1.561751
 21
-1.561751
  0
TEXT
  8
TEXT
 10
0.10065
 20
-1.405784
 30
0.0
 40
0.224
 50
0.0
  1
DOVETAIL DESIGNS
  0
TEXT
  8
TEXT
 10
2.276036
 20
-1.551751
 30
0.0
 40
0.099
 50
0.0
  1
& MILLWORK INC.
  0
TEXT
  8
TEXT
 10
1.092458
 20
-1.640461
 30
0.0
 40
0.07
 50
0.0
  1
Established 1979
  0
TEXT
  8
TEXT
 10
0.1
 20
-1.8
 30
0.0
 40
0.1
 50
0.0
  1
Phone: (406) 248-5010    Website: www.dovetailmt.com
  0
TEXT
  8
TEXT
 10
0.0
 20
-0.25
 30
0.0
 40
0.15625
 50
0.0
  1
B158
  0
TEXT
  8
TEXT
 10
0.0
 20
-0.5
 30
0.0
 40
0.1
 50
0.0
  1
1/2"x5-3/4"
  0
ENDSEC
  0
EOF
