  0
SECTION
  2
ENTITIES
  0
ARC
  8
APS_GEOMETRY
 10
-0.58092
 20
-2.033401
 40
9.385113
 50
84.172775
 51
84.282113
  0
LINE
  8
APS_GEOMETRY
 10
0.354122
 11
0.328125
 20
7.305017
 21
7.5
  0
LINE
  8
APS_GEOMETRY
 10
0.328125
 11
0.0
 20
7.5
 21
7.5
  0
LINE
  8
APS_GEOMETRY
 10
0.0
 11
0.0
 20
7.5
 21
0.0
  0
LINE
  8
APS_GEOMETRY
 10
0.0
 11
0.75
 20
0.0
 21
0.0
  0
LINE
  8
APS_GEOMETRY
 10
0.75
 11
0.75
 20
0.0
 21
6.587998
  0
ARC
  8
APS_GEOMETRY
 10
0.71875
 20
6.587998
 40
0.03125
 50
0.0
 51
68.749494
  0
LINE
  8
APS_GEOMETRY
 10
0.730076
 11
0.619375
 20
6.617123
 21
6.660174
  0
LINE
  8
APS_GEOMETRY
 10
0.619375
 11
0.619375
 20
6.660174
 21
6.70093
  0
ARC
  8
APS_GEOMETRY
 10
0.530495
 20
6.888599
 40
0.207652
 50
295.342189
 51
300.006292
  0
ARC
  8
APS_GEOMETRY
 10
0.555711
 20
6.844947
 40
0.15724
 50
300.004089
 51
308.388817
  0
ARC
  8
APS_GEOMETRY
 10
0.561002
 20
6.838268
 40
0.148719
 50
308.388966
 51
338.378996
  0
ARC
  8
APS_GEOMETRY
 10
0.558877
 20
6.839107
 40
0.151004
 50
338.380095
 51
359.962384
  0
ARC
  8
APS_GEOMETRY
 10
0.593512
 20
6.839086
 40
0.116369
 50
359.961512
 51
13.14952
  0
ARC
  8
APS_GEOMETRY
 10
0.540363
 20
6.826668
 40
0.170949
 50
13.150008
 51
24.100134
  0
ARC
  8
APS_GEOMETRY
 10
0.546324
 20
6.829337
 40
0.164418
 50
24.099423
 51
43.603444
  0
ARC
  8
APS_GEOMETRY
 10
0.548234
 20
6.831156
 40
0.16178
 50
43.603347
 51
67.794879
  0
ARC
  8
APS_GEOMETRY
 10
0.709733
 20
7.328125
 40
0.361401
 50
203.679006
 51
253.877416
  0
ARC
  8
APS_GEOMETRY
 10
0.235101
 20
7.663668
 40
0.501694
 50
286.639311
 51
288.78467
  0
ARC
  8
APS_GEOMETRY
 10
0.356199
 20
7.307621
 40
0.125616
 50
288.786314
 51
294.295308
  0
ARC
  8
APS_GEOMETRY
 10
0.377374
 20
7.260728
 40
0.074164
 50
294.291118
 51
303.635442
  0
ARC
  8
APS_GEOMETRY
 10
0.393463
 20
7.236533
 40
0.045108
 50
303.642673
 51
315.208216
  0
ARC
  8
APS_GEOMETRY
 10
0.387464
 20
7.242495
 40
0.053566
 50
315.203329
 51
355.010397
  0
ARC
  8
APS_GEOMETRY
 10
0.383885
 20
7.242808
 40
0.057159
 50
355.009812
 51
33.28765
  0
ARC
  8
APS_GEOMETRY
 10
0.386355
 20
7.24443
 40
0.054204
 50
33.288109
 51
52.586347
  0
ARC
  8
APS_GEOMETRY
 10
0.378682
 20
7.234397
 40
0.066835
 50
52.587689
 51
69.290016
  0
ARC
  8
APS_GEOMETRY
 10
0.375027
 20
7.224719
 40
0.07718
 50
69.292788
 51
76.208607
  0
ARC
  8
APS_GEOMETRY
 10
0.362241
 20
7.172684
 40
0.130763
 50
76.203031
 51
81.640445
  0
ARC
  8
APS_GEOMETRY
 10
0.350385
 20
7.091869
 40
0.212443
 50
81.645459
 51
84.176192
  0
LINE
  8
CONSTRUCTION
 10
0.152615
 11
0.10065
 20
-1.038482
 21
-1.166909
  0
LINE
  8
CONSTRUCTION
 10
0.10065
 11
0.20458
 20
-1.166909
 21
-1.166909
  0
LINE
  8
CONSTRUCTION
 10
0.20458
 11
0.152615
 20
-1.166909
 21
-1.038482
  0
LINE
  8
CONSTRUCTION
 10
0.152615
 11
0.559547
 20
-1.038482
 21
-1.03848
  0
LINE
  8
CONSTRUCTION
 10
0.559547
 11
0.507582
 20
-1.03848
 21
-1.166908
  0
LINE
  8
CONSTRUCTION
 10
0.507582
 11
0.611512
 20
-1.166908
 21
-1.166908
  0
LINE
  8
CONSTRUCTION
 10
0.611512
 11
0.559547
 20
-1.166908
 21
-1.03848
  0
LINE
  8
CONSTRUCTION
 10
0.559547
 11
0.966478
 20
-1.03848
 21
-1.03848
  0
LINE
  8
CONSTRUCTION
 10
0.966478
 11
0.914513
 20
-1.03848
 21
-1.166908
  0
LINE
  8
CONSTRUCTION
 10
0.914513
 11
1.018442
 20
-1.166908
 21
-1.166908
  0
LINE
  8
CONSTRUCTION
 10
1.018442
 11
0.966478
 20
-1.166908
 21
-1.03848
  0
LINE
  8
CONSTRUCTION
 10
0.966478
 11
1.373408
 20
-1.03848
 21
-1.03848
  0
LINE
  8
CONSTRUCTION
 10
1.373408
 11
1.321443
 20
-1.03848
 21
-1.166908
  0
LINE
  8
CONSTRUCTION
 10
1.321443
 11
1.425373
 20
-1.166908
 21
-1.166908
  0
LINE
  8
CONSTRUCTION
 10
1.425373
 11
1.373408
 20
-1.166908
 21
-1.03848
  0
LINE
  8
CONSTRUCTION
 10
1.373408
 11
1.780281
 20
-1.03848
 21
-1.038482
  0
LINE
  8
CONSTRUCTION
 10
1.780281
 11
1.728316
 20
-1.038482
 21
-1.166909
  0
LINE
  8
CONSTRUCTION
 10
1.728316
 11
1.832246
 20
-1.166909
 21
-1.166909
  0
LINE
  8
CONSTRUCTION
 10
1.832246
 11
1.780281
 20
-1.166909
 21
-1.038482
  0
LINE
  8
CONSTRUCTION
 10
0.0
 11
4.0
 20
-1.561751
 21
-1.561751
  0
TEXT
  8
TEXT
 10
0.10065
 20
-1.405784
 30
0.0
 40
0.224
 50
0.0
  1
DOVETAIL DESIGNS
  0
TEXT
  8
TEXT
 10
2.276036
 20
-1.551751
 30
0.0
 40
0.099
 50
0.0
  1
& MILLWORK INC.
  0
TEXT
  8
TEXT
 10
1.092458
 20
-1.640461
 30
0.0
 40
0.07
 50
0.0
  1
Established 1979
  0
TEXT
  8
TEXT
 10
0.1
 20
-1.8
 30
0.0
 40
0.1
 50
0.0
  1
Phone: (406) 248-5010    Website: www.dovetailmt.com
  0
TEXT
  8
TEXT
 10
0.0
 20
-0.25
 30
0.0
 40
0.15625
 50
0.0
  1
B153
  0
TEXT
  8
TEXT
 10
0.0
 20
-0.5
 30
0.0
 40
0.1
 50
0.0
  1
3/4"x7-1/2"
  0
ENDSEC
  0
EOF
