  0
SECTION
  2
ENTITIES
  0
ARC
  8
APS_GEOMETRY
 10
0.179131
 20
4.476875
 40
0.320869
 50
359.025092
 51
51.732714
  0
ARC
  8
APS_GEOMETRY
 10
0.585869
 20
4.9925
 40
0.335869
 50
179.999977
 51
231.732736
  0
LINE
  8
APS_GEOMETRY
 10
0.25
 11
0.25
 20
4.9925
 21
5.11
  0
LINE
  8
APS_GEOMETRY
 10
0.25
 11
0.0
 20
5.11
 21
5.11
  0
LINE
  8
APS_GEOMETRY
 10
0.0
 11
0.0
 20
5.11
 21
3.747653
  0
ARC
  8
APS_GEOMETRY
 10
-0.03875
 20
3.654112
 40
0.10125
 50
0.000246
 51
67.497977
  0
LINE
  8
APS_GEOMETRY
 10
0.0625
 11
0.0625
 20
3.654112
 21
3.080888
  0
ARC
  8
APS_GEOMETRY
 10
-0.03875
 20
3.080888
 40
0.10125
 50
292.502023
 51
0.0
  0
LINE
  8
APS_GEOMETRY
 10
0.0
 11
0.0
 20
2.987347
 21
2.497653
  0
ARC
  8
APS_GEOMETRY
 10
-0.03875
 20
2.404112
 40
0.10125
 50
0.000246
 51
67.497977
  0
LINE
  8
APS_GEOMETRY
 10
0.0625
 11
0.0625
 20
2.404112
 21
1.830888
  0
ARC
  8
APS_GEOMETRY
 10
-0.03875
 20
1.830888
 40
0.10125
 50
292.502023
 51
0.0
  0
LINE
  8
APS_GEOMETRY
 10
0.0
 11
0.0
 20
1.737347
 21
1.247653
  0
ARC
  8
APS_GEOMETRY
 10
-0.03875
 20
1.154112
 40
0.10125
 50
0.000246
 51
67.497977
  0
LINE
  8
APS_GEOMETRY
 10
0.0625
 11
0.0625
 20
1.154112
 21
0.580888
  0
ARC
  8
APS_GEOMETRY
 10
-0.03875
 20
0.580888
 40
0.10125
 50
292.502023
 51
0.0
  0
LINE
  8
APS_GEOMETRY
 10
0.0
 11
0.0
 20
0.487347
 21
0.0
  0
LINE
  8
APS_GEOMETRY
 10
0.0
 11
0.75
 20
0.0
 21
0.0
  0
LINE
  8
APS_GEOMETRY
 10
0.75
 11
0.75
 20
0.0
 21
1.815723
  0
ARC
  8
APS_GEOMETRY
 10
0.6325
 20
1.815723
 40
0.1175
 50
0.0
 51
45.0
  0
LINE
  8
APS_GEOMETRY
 10
0.715585
 11
0.62197
 20
1.898808
 21
1.992423
  0
ARC
  8
APS_GEOMETRY
 10
0.671468
 20
2.04192
 40
0.07
 50
164.351153
 51
224.999658
  0
ARC
  8
APS_GEOMETRY
 10
-2.375589
 20
2.895435
 40
3.094339
 50
344.351865
 51
18.285571
  0
LINE
  8
APS_GEOMETRY
 10
0.5625
 11
0.5625
 20
3.866294
 21
4.388487
  0
ARC
  8
APS_GEOMETRY
 10
0.47625
 20
4.388487
 40
0.08625
 50
0.00023
 51
74.048487
  0
LINE
  8
CONSTRUCTION
 10
0.152615
 11
0.10065
 20
-1.038482
 21
-1.166909
  0
LINE
  8
CONSTRUCTION
 10
0.10065
 11
0.20458
 20
-1.166909
 21
-1.166909
  0
LINE
  8
CONSTRUCTION
 10
0.20458
 11
0.152615
 20
-1.166909
 21
-1.038482
  0
LINE
  8
CONSTRUCTION
 10
0.152615
 11
0.559547
 20
-1.038482
 21
-1.03848
  0
LINE
  8
CONSTRUCTION
 10
0.559547
 11
0.507582
 20
-1.03848
 21
-1.166908
  0
LINE
  8
CONSTRUCTION
 10
0.507582
 11
0.611512
 20
-1.166908
 21
-1.166908
  0
LINE
  8
CONSTRUCTION
 10
0.611512
 11
0.559547
 20
-1.166908
 21
-1.03848
  0
LINE
  8
CONSTRUCTION
 10
0.559547
 11
0.966478
 20
-1.03848
 21
-1.03848
  0
LINE
  8
CONSTRUCTION
 10
0.966478
 11
0.914513
 20
-1.03848
 21
-1.166908
  0
LINE
  8
CONSTRUCTION
 10
0.914513
 11
1.018442
 20
-1.166908
 21
-1.166908
  0
LINE
  8
CONSTRUCTION
 10
1.018442
 11
0.966478
 20
-1.166908
 21
-1.03848
  0
LINE
  8
CONSTRUCTION
 10
0.966478
 11
1.373408
 20
-1.03848
 21
-1.03848
  0
LINE
  8
CONSTRUCTION
 10
1.373408
 11
1.321443
 20
-1.03848
 21
-1.166908
  0
LINE
  8
CONSTRUCTION
 10
1.321443
 11
1.425373
 20
-1.166908
 21
-1.166908
  0
LINE
  8
CONSTRUCTION
 10
1.425373
 11
1.373408
 20
-1.166908
 21
-1.03848
  0
LINE
  8
CONSTRUCTION
 10
1.373408
 11
1.780281
 20
-1.03848
 21
-1.038482
  0
LINE
  8
CONSTRUCTION
 10
1.780281
 11
1.728316
 20
-1.038482
 21
-1.166909
  0
LINE
  8
CONSTRUCTION
 10
1.728316
 11
1.832246
 20
-1.166909
 21
-1.166909
  0
LINE
  8
CONSTRUCTION
 10
1.832246
 11
1.780281
 20
-1.166909
 21
-1.038482
  0
LINE
  8
CONSTRUCTION
 10
0.0
 11
4.0
 20
-1.561751
 21
-1.561751
  0
TEXT
  8
TEXT
 10
0.10065
 20
-1.405784
 30
0.0
 40
0.224
 50
0.0
  1
DOVETAIL DESIGNS
  0
TEXT
  8
TEXT
 10
2.276036
 20
-1.551751
 30
0.0
 40
0.099
 50
0.0
  1
& MILLWORK INC.
  0
TEXT
  8
TEXT
 10
1.092458
 20
-1.640461
 30
0.0
 40
0.07
 50
0.0
  1
Established 1979
  0
TEXT
  8
TEXT
 10
0.1
 20
-1.8
 30
0.0
 40
0.1
 50
0.0
  1
Phone: (406) 248-5010    Website: www.dovetailmt.com
  0
TEXT
  8
TEXT
 10
0.0
 20
-0.5
 30
0.0
 40
0.1
 50
0.0
  1
3/4"x5-1/8"
  0
TEXT
  8
TEXT
 10
0.0
 20
-0.25
 30
0.0
 40
0.15625
 50
0.0
  1
B121
  0
ENDSEC
  0
EOF
