  0
SECTION
  2
ENTITIES
  0
LINE
  8
CONSTRUCTION
 10
-18.042155
 11
-18.19805
 20
-6.115445
 21
-6.500728
  0
LINE
  8
CONSTRUCTION
 10
-18.19805
 11
-17.886261
 20
-6.500728
 21
-6.500728
  0
LINE
  8
CONSTRUCTION
 10
-17.886261
 11
-18.042155
 20
-6.500728
 21
-6.115445
  0
LINE
  8
CONSTRUCTION
 10
-18.042155
 11
-16.82136
 20
-6.115445
 21
-6.115441
  0
LINE
  8
CONSTRUCTION
 10
-16.82136
 11
-16.977255
 20
-6.115441
 21
-6.500724
  0
LINE
  8
CONSTRUCTION
 10
-16.977255
 11
-16.665465
 20
-6.500724
 21
-6.500724
  0
LINE
  8
CONSTRUCTION
 10
-16.665465
 11
-16.82136
 20
-6.500724
 21
-6.115441
  0
LINE
  8
CONSTRUCTION
 10
-16.82136
 11
-15.600567
 20
-6.115441
 21
-6.115441
  0
LINE
  8
CONSTRUCTION
 10
-15.600567
 11
-15.756462
 20
-6.115441
 21
-6.500724
  0
LINE
  8
CONSTRUCTION
 10
-15.756462
 11
-15.444673
 20
-6.500724
 21
-6.500724
  0
LINE
  8
CONSTRUCTION
 10
-15.444673
 11
-15.600567
 20
-6.500724
 21
-6.115441
  0
LINE
  8
CONSTRUCTION
 10
-15.600567
 11
-14.379775
 20
-6.115441
 21
-6.115441
  0
LINE
  8
CONSTRUCTION
 10
-14.379775
 11
-14.53567
 20
-6.115441
 21
-6.500724
  0
LINE
  8
CONSTRUCTION
 10
-14.53567
 11
-14.22388
 20
-6.500724
 21
-6.500724
  0
LINE
  8
CONSTRUCTION
 10
-14.22388
 11
-14.379775
 20
-6.500724
 21
-6.115441
  0
LINE
  8
CONSTRUCTION
 10
-14.379775
 11
-13.159157
 20
-6.115441
 21
-6.115445
  0
LINE
  8
CONSTRUCTION
 10
-13.159157
 11
-13.315052
 20
-6.115445
 21
-6.500728
  0
LINE
  8
CONSTRUCTION
 10
-13.315052
 11
-13.003262
 20
-6.500728
 21
-6.500728
  0
LINE
  8
CONSTRUCTION
 10
-13.003262
 11
-13.159157
 20
-6.500728
 21
-6.115445
  0
LINE
  8
CONSTRUCTION
 10
-18.5
 11
-6.5
 20
-7.685253
 21
-7.685253
  0
LINE
  8
APS_GEOMETRY
 10
-24.0
 11
-24.0
 20
-1.5
 21
0.0
  0
LINE
  8
APS_GEOMETRY
 10
-20.0
 11
-20.0
 20
-0.75
 21
-1.5
  0
LINE
  8
APS_GEOMETRY
 10
-20.0
 11
-24.25
 20
-1.5
 21
-1.5
  0
ARC
  8
APS_GEOMETRY
 10
-24.25
 20
-0.75
 40
0.75
 50
90.0
 51
270.0
  0
LINE
  8
APS_GEOMETRY
 10
-24.25
 11
0.0
 20
0.0
 21
0.0
  0
LINE
  8
APS_GEOMETRY
 10
-0.75
 11
-0.75
 20
0.0
 21
4.0
  0
LINE
  8
APS_GEOMETRY
 10
-0.75
 11
0.0
 20
4.0
 21
4.0
  0
LINE
  8
APS_GEOMETRY
 10
0.0
 11
0.0
 20
4.0
 21
-1.5
  0
LINE
  8
APS_GEOMETRY
 10
0.0
 11
-4.0
 20
-1.5
 21
-1.5
  0
LINE
  8
APS_GEOMETRY
 10
-4.0
 11
-4.0
 20
-1.5
 21
-0.75
  0
LINE
  8
APS_GEOMETRY
 10
-24.0
 11
0.0
 20
-0.75
 21
-0.75
  0
TEXT
  8
TEXT
 10
-18.19805
 20
-7.217351
 30
0.0
 40
0.672
 50
0.0
  1
DOVETAIL DESIGNS
  0
TEXT
  8
TEXT
 10
-11.671891
 20
-7.655253
 30
0.0
 40
0.297
 50
0.0
  1
& MILLWORK INC.
  0
TEXT
  8
TEXT
 10
-15.222626
 20
-7.921383
 30
0.0
 40
0.21
 50
0.0
  1
Established 1979
  0
TEXT
  8
TEXT
 10
-18.2
 20
-8.4
 30
0.0
 40
0.3
 50
0.0
  1
Phone: (406) 248-5010    Website: www.dovetailmt.com
  0
ENDSEC
  0
EOF
